» » »

Saliva - Superstar Ii Bass

Artists:  A B C D E F G H I J K L M N O P Q R S T U V W X Y Z # 

Superstar Ii Bass

(ver. 1) Click to play this song!
Saliva
 Rating:
4/5 (4 votes)


 Superstar Ii lessons Tabs too difficult? Try these video lessons and learn fast
 
                Saliva - Superstar II

bass tab


5-stringed bass
G D A E B

   INTRO
G-|--------------------------------|
D-|--------------------------------|
A-|------2-------------------------|
E-|-9\22---0-0h2-22p0---0h2-22p0---|
B-|-------------------2----------2-|
                                                                              

   VERSO
G-|-------------------------|
D-|-------------------------|
A-|-------------------------|
E-|------0000-2222-3333-3-0-|
B-|-2222--------------------|
                                                                              

   CORO
G-|--------------------------------------|-
D-|--------------------------------------|
A-|--------------------------------------|
E-|-9979---7757---2202-2-0-2---2-2-2-0---|
B-|--------------------------------------|
                                                                              

   MIDDLE
G-|-----------------------------------|
D-|-----------------------------------|
A-|-----------------------------------|
E-|-4-4-444-2-2-222/5-5-5-555-4-4-444-|
B-|-----------------------------------|
                                                                              

G-|--------------------------------|
D-|--------------------------------|
A-|--------------------------------|
E-|-4-4-444-5-5-555-2-2-222/4-4444-|
B-|--------------------------------|
                                                                              
Le mando Salutos Al Ariel Ticona de QB 2004 que era pues el otro jefe de la
Sociedad Chupistica del curso y daba tragos y casa mas y mesas y sillas
para chupar a lo tara y asi, pero y asi y todo ps.

doky2007 
            
Submit corrections



        Superstar Ii lessons Hard to play? Try these video lessons and learn fast Superstar Ii lessons
        
↑ Back to top | Tablatures and chords for acoustic guitar and electric guitar, ukulele, drums are parodies/interpretations of the original songs. You may use it for private study, scholarship, research or language learning purposes only