Home » R » Russian Red »

Russian Red - Cigarettes Tabs

Artists:  A B C D E F G H I J K L M N O P Q R S T U V W X Y Z # 

Cigarettes Tabs

(ver. 2) Click to play this song!
Russian Red
 Rating:
4.4/5 (7 votes)
                         
                           RUSSIAN RED

                           Cigarettes


      I have corrected this one. Played it over the album and sounded 
      flawless.


      Capo 1st fret.


     Intro:

            C               Em              F
        E-----------------------------------------------------]
        B-----------------------------------------------------]
        G-----0---0---0---0---0---0---0---0----2---2---2---2--]
        D-----------------------------------------------------]
        A---3---3---3---3---2---2---2---2---------------------]
        E------------------------------------1---1---1---1----]


          Am       G
        E-------------------]
        B-------------------]
        G----2---2---0---0--]
        D-------------------]
        A--0---0---2---2----]
        E-------------------]


      Verse:


            C               Em              F
        E-----------------------------------------------------]
        B-----1---1---1---1---1---1---1---1----1---1---1---1--]
        G-----0---0---0---0---0---0---0---0----2---2---2---2--]
        D-----------------------------------------------------]
        A---3---3---3---3---2---2---2---2---------------------]
        E------------------------------------1---1---1---1----]

           Am      G
                                       Am      G
        E----------------]          E-----------------]   ,IT DEPENDS
        B-----1-----1----]          B-----1------0----]
        G----2-2---2-2---]    OR    G----2-2----0-0---]    ON YOU
        D----------------]          D---------0-------]
        A--0-----2-------]          A--0--------------]
        E----------------]          E-----------------]




    Solo 1:  B[--1/6/5--3/1--3/5--3-1-0-1--]


    Solo 2:  B[--1/6/5--3/1--3/5--]






      END. HOPE YOU ENJOY IT, AND PLEASE, DON´T FORGET TO RATE.
            
Submit corrections

↑ Back to top | Tablatures and chords for acoustic guitar and electric guitar, ukulele, drums are parodies/interpretations of the original songs. You may use it for private study, scholarship, research or language learning purposes only