» » »

Rolling Stones - Under My Thumb Bass

Artists:  A B C D E F G H I J K L M N O P Q R S T U V W X Y Z # 

Under My Thumb Bass

(ver. 2) Click to play this song!
Rolling Stones
 Rating:
4/5 (4 votes)
                A

|-------------------------------------------------------|
|-------------------------------------------------------|
|--9-7---9-9---7-5---7-7---5-3---5-3---5-5-3---5-5  X 4-|
|------9-----------7-----------5-----5-------5----------|

B

|-------------------------------------------------------------------|
|-----7--5--4------7--5--4------------------------------------------|
|-------------7------------7-5-5-5-5-2-2-2-2-9-7---9-9--7-5---------|
|--5------------5--------------------------------9----------7-5-5-7-|

C

|---------------|
|---------------|
|---------------|
|-----7--5--4---|
|-------------7-|
|--5------------|

Back to A, repeat until the end, for the outro just keep repeating C till the song fades 
The are slight variations throughout but it all sticks to this basic template
            
Submit corrections

↑ Back to top | Tablatures and chords for acoustic guitar and electric guitar, ukulele, drums are parodies/interpretations of the original songs. You may use it for private study, scholarship, research or language learning purposes only