» » »

Rolling Stones - Heartbreaker Bass

Artists:  A B C D E F G H I J K L M N O P Q R S T U V W X Y Z # 

Heartbreaker Bass

(ver. 2) Click to play this song!
Rolling Stones
 Rating:
4/5 (4 votes)
                Jagger/Richard

Main Riff (intro, chorus, solo, outro)
G|--------------------------------|
D|--------------------------------|
A|----------------3-3-3-3---------|
E|0-0-0-0-3-3-3-3---------0-0-0-0-|

Vesre
G|--------------------------------|
D|--------------------------------|
A|7-7-7-7---------3-3-3-3---------|
E|--------3-3-3-3---------0-0-0-0-|
            
Submit corrections

↑ Back to top | Tablatures and chords for acoustic guitar and electric guitar, ukulele, drums are parodies/interpretations of the original songs. You may use it for private study, scholarship, research or language learning purposes only