» » »

Robbie Williams - South Of The Border Bass

Artists:  A B C D E F G H I J K L M N O P Q R S T U V W X Y Z # 

South Of The Border Bass

(ver. 1) Click to play this song!
Robbie Williams
 Rating:
4/5 (4 votes)


 South Of The Border lessons Tabs too difficult? Try these video lessons and learn fast
 
                Bassist: Fil Eisler
Tuning: Standard

Intro:

G|-------------------------------|-------------------------------|
D|-------------------------------|-------------------------------|
A|-----0-2-3-3--------0-2-3-3----|-----0-2-3-3--------0-2-3-3----|
E|3-3------------0-0-----------0-|3-3------------0-0----------0-1|

Verse:

G|-------------------------------|-------------------------------|
D|-------------------------------|-------------------------------|
A|-----0-2-3-3--------0-2-3-3----|-----0-2-3-3-------------------|
E|3-3------------3-3-----------0-|3-3------------1-1--3/5-5-5-5\-|

G|-------------------------------|-------------------------------|
D|-------------------------------|-------------------------------|
A|-----0-2-3-3-----------1-3-----|-----0-2-3-3-------------------|
E|3-3------------3-3---------0-1-|3-3------------1-1--3/5-5-5-5--|

Pre-chorus:

G|-------------------------------------------------------|
D|---2--022--------------------2--022--------------------|
A|-----------3--3---3-3----------------3-----/15-15-15-\-|
E|0-------------------------0----------------------------|

Chorus:

G|--------------------------------|--------------------------------|
D|--------------------------------|--------------------------------|
A|--------3-3-------------3-3-----|--------3-3-------------3-3/5\3-|
E|3-3-----------0-1-1---3-----0-1-|3-3-----------0-1-1---3---------|

G|--------------------------------|
D|--------------------------------|
A|--------3-3---------------------|
E|3-3---------0-1~----------------|

Bridge:

G|-------------------------------|-------------------------------|
D|-------------------------------|-------------------------------|
A|-----0-2-3-3--------0-2-3-3----|-----0-2-3-3--------0-2-3-3----|
E|3-3------------0-0-----------0-|3-3------------0-0----------0-1|

Verse:

G|-------------------------------|-------------------------------|
D|-------------------------------|-------------------------------|
A|-----0-2-3-3-----------1-3-----|-----0-2-3-3-------------------|
E|3-3------------3-3---------0-1-|3-3------------1-1--3/5-5-5-5\-|

G|-------------------------------|-------------------------------|
D|-------------------------------|-------------------------------|
A|-----0-2-3-3-----------1-3-----|-----0-2-3-3-------------------|
E|3-3------------3-3---------0-1-|3-3------------1-1--3/5-5-5-5\-|

Pre-chorus:

G|-----------------------------------------------------------|
D|---2--022--------------------2--022------------------------|
A|-----------3-----3-3-----------------3-3-3-3-3/15-15-------|
E|0-------------------------0--------------------------15\---|


Chorus:

G|--------------------------------|--------------------------------|
D|--------------------------------|--------------------------------|
A|--------3-3-------------3-3-----|--------3-3-----------2-3-3-----|
E|3-3-----------0-1-1--3/5----0-1-|3-3-----------0-1-3-5-------0-1-|

G|--------------------------------|
D|--------------------------------| 
A|--------3-3---------------------| 
E|3-3-------------1-1-1-1-1-1-1-1-| 


G|---------|    |-----------|
D|---------|    |-----------|
A|3/5-555--|    |8-7--------|
E|---------| x7 |-----6-5-\-|

Guitar solo:

G|--------------------------------|--------------------------------|
D|--------------------------------|--------------------------------|
A|--------3-3-------------3-------|--------3-3-------------3-------|
E|3-3-----------0-1-1--3/5----0-1-|3-3-----------0-1-1-3-5---0-1-2-|

G|--------------------------------|
D|--------------------------------| 
A|--------3-3----------------/8\--| 
E|3-3---------0-1~----------------| 

Not sure about endings but it goes something like this...

G|------------------------------------|
D|----5---3-5-3-----------------------|
A|--------------5-3----3~-------------|
E|3-----------------6-----------------|

G|------------------------------------|
D|----5---3-5-3-----------------------|
A|--------------5-3----3~-------------|
E|3-----------------6--------0--1--2--|

G|------------------------------------|
D|----5---3-5-3----------------3-4-5--|
A|--------------5-3----3~-------------|
E|3-----------------6-----------------|

G|------------------------------------|
D|----5---3-5-3-----------------------|
A|--------------5-3----3~-----/3-3-3\-|
E|3-----------------6-----------------|

G|-----------------------------------------|
D|----5---3-5-3----------------------------|
A|--------------5-3----3~-----3-3333-3-----|
E|3-----------------6------------------0-1-|

G|-----------------------------------------|
D|----5---3-5-3----------------------------|
A|--------------5-3----3~----/15-15-15-15\-|
E|3-----------------6----------------------|

Chorus:

G|--------------------------------|--------------------------------|
D|--------------------------------|--------------------------------|
A|--------3-3-------------3-3-----|--------3-3---------0-2-3-------|
E|3-3-----------0-1-1--3/5----0-1-|3-3-----------0-1-33------0-1-22|

G|-----------------------------------------------------------------|
D|-----------------------------------------------------------------| 
A|--------3-3------------------------------------------------------| 
E|3-3--3-3----0-1~-------------------------------------------/(13)-| 

/  slide up
\  slide down
h  hammer-on
p  pull-off
~  let ring
            
Submit corrections



        South Of The Border lessons Hard to play? Try these video lessons and learn fast South Of The Border lessons
        
↑ Back to top | Tablatures and chords for acoustic guitar and electric guitar, ukulele, drums are parodies/interpretations of the original songs. You may use it for private study, scholarship, research or language learning purposes only