» » »

Robbie Williams - Sexed Up Bass

Artists:  A B C D E F G H I J K L M N O P Q R S T U V W X Y Z # 

Sexed Up Bass

(ver. 1) Click to play this song!
Robbie Williams
 Rating:
4/5 (4 votes)


 Sexed Up lessons Tabs too difficult? Try these video lessons and learn fast
 
                Bassist: Phil Spalding
Tuning: Standard

No bass till 0:38

Verse:

G|---------------------------------------------|
D|3----5---2-----------------------------------|
A|--------------0---0-2-3-5--------------------|
E|-----------------------------3-3-3---/15-15\-|

Chorus:

G|-------------------------------------------------------------------|
D|-------------------------------------------------------------------|
A|3--3----------------3--3----------------3--3-----------------------|
E|-----0--0-1--1-3--3------0--0-1--1-3--3------0--0-1--------/13-----|

Bridge:

G|----------------------------------------|
D|----------------------------------------|
A|3--3----------------3--3----------------|
E|-----0--0-1--1-3---------0--0-1--1-3----|

Verse:

G|------------------------------------------|
D|-------------------------7----------------|
A|3----3------------------------7---7-7-7\5-|
E|----------1----1----5---------------------|

G|-------------------------------------------|
D|-------------------------7---\5----5---5/7-|
A|3----3-------------------------------------|
E|----------1----1----5----------------------|

G|--------------------------------------------|
D|--------------5--5--5---5-5-----------------|
A|8--8--8--8-8-----------5-----7--7--7---7-7--|
E|--------8-----------------------------7-----|

G|------------------------------------------------|
D|------------------------------------------------|
A|0-0--0-0-2-3-5----5-5-5-------------------------|
E|------------------------5-3-3-3-3/151515-15-15\-|

Chorus:

G|-----------------------------------------------------------------------|
D|-----------------------------------------------------------------------|
A|3--3------------------3--3------------------3--3-----------------------|
E|-----0--0-1--1-3--3-35-----0--0-1--1-3--3-3------0--0-1-------/13------|

G|-----------------------------------------------------------------------|
D|---------------------5--5------7--7-5-------5---------7--578~---7--8---|
A|3-3-3-3-3-3-5-7-8--8------7--7---------8--8------7--7------------------|
E|-----------------------------------------------------------------------|

No bass till 3:13

Chorus:

G|--------------------------------------------|
D|--------------------------------------------|
A|3--3------------------3--3------------------|
E|-----0--0-1--1-3-----------0--0-1--1-3------|

G|--------------------------------------|
D|-----2--2-3--3-3--3-5-6-6-6-6-6-5-3-5-|
A|3--3----------------------------------|
E|--------------------------------------|

Outro:

G|----------------------------------------|
D|----------------------------------------|
A|3--3-3-3-\----------3--3-3--35----------|
E|----------3--3-3--13----------3--3-3----|

G|-------------------------------------------------|
D|-------------------------------------------------|
A|3--3-3------------5-3-13-3-----------------3~----|
E|----------3--3-3-3-3----------3--1-3-3-5-3-------|

/  slide up
\  slide down
h  hammer-on
p  pull-off
~  let ring
            
Submit corrections



        Sexed Up lessons Hard to play? Try these video lessons and learn fast Sexed Up lessons
        
↑ Back to top | Tablatures and chords for acoustic guitar and electric guitar, ukulele, drums are parodies/interpretations of the original songs. You may use it for private study, scholarship, research or language learning purposes only