» » »

Robbie Williams - Please Don't Die Bass

Artists:  A B C D E F G H I J K L M N O P Q R S T U V W X Y Z # 

Please Don't Die Bass

(ver. 1) Click to play this song!
Robbie Williams
 Rating:
4/5 (4 votes)


 Please Don't Die lessons Tabs too difficult? Try these video lessons and learn fast
 
                Bassist: Davey Farragher
Tuning: Standard


Notes with dots means staccato. They are very short and just before next
note in line. Song is easy while You don't try to memorize this tab.

Intro and Verse:

G|-------------------|
D|------------3------|
A|0-3-4-5~-------3~--|
E|-------------------| Play this riff till [0:42]

Pre-chorus:

G|----------------------------------------------|
D|---------------------.------------------------|
A|----3------3-----3---0-----5------------------|
E|1-----1----------------3-----3----5-3-0-5--3--|

G|----------------------------------------------|
D|---------------------.-------5~---------------|
A|-----------3---0-3---0----5----------5h7p5----|
E|1-----1----------------3------------------5-3-|

Chorus:

G|------------------------------------------------|
D|------------------------------------------5-----|
A|3-3-0-3---.-----------------2-----------5-------|
E|----------3-5-5-3-5-----0-0---0-----3-3---------|

G|------------------------------------------------|
D|------------------------------2-----------5-----|
A|3-3-0-3---.-----------.-----2-----.-----5-----5-|
E|----------3-5-5-3-5---3-0-0-------0-3-3--------3|

G|------------------------------------------------|
D|------------------------------2-----------5-----|
A|3-3-0-3---------------.-----2-----.-----5-------|
E|------------5-5-3-5---3-0-0-------0-3-3---------|

G|------------------------------------------------|
D|----------2-------------------2-----------5-----|
A|3-3-0-3-5-------------------2-----.-----5-----7\|
E|------------5-5-3-5-----0-0-------0-3-3---------|

Verse:

G|-----------------------|
D|------------3-3--------|
A|0-3-4-5~---------3~---.|
E|----------------------3| Play this riff till [2:06]

Pre-chorus:

G|------------------------------------------------|
D|----------------------.-------------------------|
A|----------.-3---0-3---0----5--------------------|
E|1-----1---3-------------3-----3---3-5-3-0-5--3--|

G|------------------------------------------------|
D|----------------------.-------5~----------------|
A|----3-----.-3---0-3---0----5--------------------|
E|1-----1---3-------------33--------------3-5-3-5-|

Chorus:

G|------------------------------------------------|
D|------------------------------2-----------5----.|
A|3-3-0-3---.-----------.-----2-----.-----5------0|
E|----------3-5-5-3-5---3-0-0-------0-3-3---------|

G|-----------------------------------------------------|
D|------------------------------2-----------5-----5----|
A|3-3-0-3---.-----------.-----2-----.-----5----3h5--5p0|
E|----------3-5-5-3-5---3-0-0-------0-3-3--------------|

G|------------------------------------------------|
D|------------------------------2-----------5-----|
A|3-3-0-3---.-----------.-----2-----.-----5-------|
E|----------3-5-5-3-5---3-0-0-------0-3-3------3-5|

G|-----------------------------------------------------|
D|----------2-------------------2----------------------|
A|3-3-0-3-5-----------2-3-----2------------------------|
E|------------5-5-3-5-----0-0------0--3-3--3h5p3-3-3-3-|

Middle part:

G|--------------------------------|
D|--------------------------------|
A|555555553333333322222200-----234|
E|------------------------33333---| x3

G|----------------------------------|
D|----------------------------555-5-|
A|5555555533333333---------3h5---5--|
E|----------------333333333--------3| 

Chorus:

G|-------------------------------------------------|
D|------------------------------2------------5-----|
A|3-3-0-3---------------------2----2-------5---5-5-|
E|--------3-4-5-5-3-5-553-0-0-------00-3-3------3--|

G|-----------------------------------------------------|
D|------------------------------2------------5----5----|
A|3-3-0-3-303-----------------2---2--------5---3h5--5p0|
E|------------5-5-3-5-553-0-0-------0--3-3-------------|

G|-------------------------------------------------|
D|---------.--------------------2------------5-----|
A|3-3-0-3--3.-----------.-----2---2--------5---5---|
E|----------3-5-5-3-5---3-0-0-------0--3-3-------3-|

G|---------------------------------------------------|
D|----------2-------------------2--------------------|
A|3-3-0-3-5-----------2-3-----2---2------------------|
E|------------5-5-3-5-----0-0-------0--3-3-33--3-3-3-|

[4:03]

G|------------------------------------------------|
D|---------.--------------------2-----------5-----|
A|3-3-0-3--3.----------..-----2-----------5----5-5|
E|----------3-5-5-3-5--53-0-0---------3-3-------3-|

G|-----------------------------------------------------|
D|---------.--------------------2-----------5-----5----|
A|3-3-0-3--3.----------..-----2-----.-----5----3h5--5p0|
E|----------3-5-5-3-5--53-0-0-------0-3-3--------------|

G|------------------------------------------------|
D|---------.--------------------2-----------5----.|
A|3-3-0-3--3.----------..-----2-----.-----5------0|
E|----------3-5-5-3-5--53-0-0-------0-3-3---------|

G|------------------------------------------------------|
D|----------2-------------------2-----------5-----------|
A|3-3-0-3-5-----------2-3-----2---2-------5---5----3~---|
E|------------5-5-3-5-----0-0-------0-3-3-------3-------|

.  staccato
/  slide up
\  slide down
h  hammer-on
p  pull-off
~  let ring
            
Submit corrections



        Please Don't Die lessons Hard to play? Try these video lessons and learn fast Please Don't Die lessons
        
↑ Back to top | Tablatures and chords for acoustic guitar and electric guitar, ukulele, drums are parodies/interpretations of the original songs. You may use it for private study, scholarship, research or language learning purposes only