» » »

Robbie Williams - Mr Bojangles Bass

Artists:  A B C D E F G H I J K L M N O P Q R S T U V W X Y Z # 

Mr Bojangles Bass

(ver. 1) Click to play this song!
Robbie Williams
 Rating:
4/5 (4 votes)


 Mr Bojangles lessons Tabs too difficult? Try these video lessons and learn fast
 
                Bassist: ?
Tuning: Standard (Double Bass)

Intro:

G|------------------------|
D|------------------------|
A|8----7----5-------5--7--|
E|---------------8--------| x4

Verse:

G|--------------------------------------------|
D|--------------------------------------------|
A|8----7----5---------------------------5--7--|
E|---------------8----6----6----8----8--------|

G|----------------------------------------------------------------|
D|----------------------------------------------------------------|
A|8----7----5-----------------------------------------------------|
E|---------------8----6----6----8----8----6----6----5----5--8--9--|

G|--------------------------------------------|
D|--------------------------------------------|
A|5-------------------------------------5--7--|
E|-----8----7-------7-8----8----8----8--------|

G|--------------------------------------------|
D|--------------------------------------------|
A|8----7----5---------------------------5--7--|
E|---------------8----6----6----8----8--------|

G|----------------------------------------------------------------|
D|----------------------------------------------------------------|
A|8----7--7-5--5--------------------------------------------------|
E|---------------8--8-6----6----8----8--8-6----6----5----5--8--9--|

G|-------------------------------------------------------|
D|-------------------------------------------------------|
A|5-5--5---------------------------------------------5-7-|
E|-------8-8--8-7--7-7--7--8-8--8--8-8--8--8-8--8--8-----|

G|--------------------------------------------|
D|--------------------------------------------|
A|8--8-7--7-5--5------------------------5--7--|
E|---------------8--8-6--6-6--6-8---88--------|

G|----------------------------------------------------------------|
D|----------------------------------------------------------------|
A|8--8-7--7-5--5--------------------------------------------------|
E|---------------8--8-6----6----8----8--8-6----6----5----5--8--9--|

G|-----------------------------------------------------|
D|-----------------------------------------------------|
A|5-5--5-----------------------------------------------|
E|-------8-8-8-7----7----8-8--8--8-8--8--8-8--8--8-8-5-|

(Mister Bojangles... Call him Mister Bojangles)

G|------------------------|------------------------|
D|--------7-----5---------|--7-------5---5---------|
A|5-----5---5-----5-------|5---8-7-5-------7-------|
E|--5-8-------8-----8-3-8-|------------8-----8-0-5-|

G|------------------------|------------------------|
D|--7-------5---5---------|------------------------|
A|5---8-7-5---3-----3-5-7-|8---8-7---7-5---5-------|
E|----------------3-------|--8-----8-----8---8-8-9-|

G|----------------4-5-----|------------------------|
D|--7-----------5-----5---|--7-----------5---------|
A|5---8-7-5-------------0-|5---8-7-5-------7-5-----|
E|----------7-8-----------|----------7-8-------8-5-|

G|------------------------|------------------------|
D|--7-------5---5---------|------------------------|
A|5---8-7-5---3-----3-5-7-|8----7----5-------5--7--|
E|----------------3-------|---------------8--------| 
                            play this bar 4 times

G|------------------------|
D|------------------------|
A|------------------------|
E|1~----------------------|

/  slide up
\  slide down
h  hammer-on
p  pull-off
~  let ring
            
Submit corrections



        Mr Bojangles lessons Hard to play? Try these video lessons and learn fast Mr Bojangles lessons
        
↑ Back to top | Tablatures and chords for acoustic guitar and electric guitar, ukulele, drums are parodies/interpretations of the original songs. You may use it for private study, scholarship, research or language learning purposes only