» » »

Robbie Williams - Monsoon Bass

Artists:  A B C D E F G H I J K L M N O P Q R S T U V W X Y Z # 

Monsoon Bass

(ver. 1) Click to play this song!
Robbie Williams
 Rating:
4/5 (4 votes)


 Monsoon lessons Tabs too difficult? Try these video lessons and learn fast
 
                Bassist: Phil Spalding
Tuning: Standard

Verse:

G|---------------------------------------------------------|
D|---------3~-----5~-----5~---5------5---------------------|
A|3------3------5------5--------3~-----3~---1--------------|
E|--1~-----------------------------------------1-1~--------|

G|-------------------------------------------------|
D|-------------------------------------------------|
A|--------5(x16)--3(x16)--1----------------3-1-0---|
E|1(x16)---------------------1-1---1-1-1-1-------3-|

Chorus:

G|-------------------------------------------------|
D|-------------------------------------------------|
A|----------------3(x16)--1------------------------|
E|1(x16)--3(x16)-------------1-1~------------------|

Verse:

G|-------------------------------------------------------------|
D|-----3----3--3----5--5----5--5--5-------5--------------------|
A|3-------3-------5-------5---------3--3----3--3--1------------|
E|--1------------------------------------------------1-1~------|

G|-------------------------------------------------|
D|-----3-3-3----3--3-3-3----5--5-5-5-----5--5-5-5--|
A|3-----------3-----------5-----------5------------|
E|--1----------------------------------------------|

G|-------------------------------------------------|
D|5-----------5------------------------------------|
A|--3--3-3-3----3--3-3-3--3-1----------------------|
E|-----------------------------1-1~----------------|

G|-------------------------------------------------|
D|-------------------------------------------------|
A|--------5(x16)--3(x16)--1----------------3-1-0---|
E|1(x16)---------------------1-1---1-1-1-1-------3-|

Chorus:

G|-------------------------------------------------|
D|-------------------------------------------------|
A|----------------3(x16)--1------------0-0-3-3-5-5-|
E|1(x16)--3(x16)-------------1-1-----1-------------|

(Oh Lord...)

G|---------------------------5-------5----------|
D|----------------------------------------------|
A|6(x16)--8(x16)--6(x16)--3-----3-3-------------|
E|-------------------------------3--------------|

Verse:

G|------------------------------------------------------------|
D|---------3------5------5----5------5------------------------|
A|3------3------5------5--------3------3----1--------------8\-|
E|--1------------------------------------------1-1~-----------|

Chorus:

G|-------------------------------------------------|
D|-------------------------------------------------|
A|----------------3(x16)--1----------------3-1-0---|
E|1(x16)--3(x16)-------------1-1---1-1-1-1-------3-|

G|-------------------------------------------------|
D|-------------------------------------------------|
A|----------0--1(x16)--3(x16)-1--------------------|
E|1(x14)--3----------------------1-1~--------------|

/  slide up
\  slide down
h  hammer-on
p  pull-off
~  let ring
            
Submit corrections



        Monsoon lessons Hard to play? Try these video lessons and learn fast Monsoon lessons
        
↑ Back to top | Tablatures and chords for acoustic guitar and electric guitar, ukulele, drums are parodies/interpretations of the original songs. You may use it for private study, scholarship, research or language learning purposes only