» » »

Robbie Williams - Hot Fudge Bass

Artists:  A B C D E F G H I J K L M N O P Q R S T U V W X Y Z # 

Hot Fudge Bass

(ver. 2) Click to play this song!
Robbie Williams
 Rating:
4/5 (4 votes)


 Hot Fudge lessons Tabs too difficult? Try these video lessons and learn fast
 
                Bassist: Phil Spalding
Tuning: Standard

Intro:

G|---------------------------------------------------------------------|
D|------------------------------------------------------------9--------|
A|----------------------9-9-9-9----------------------------------9-----|
E|2/9-9-9-9-11-11-11-11---------9-9-9-9-9-9-9-9-11-11-11-11-7--7---9-9-|

Verse:

G|------------------------11---11-----------|
D|--11---11----13----13-------------11---11-|
A|----------------------9----9--------------|
E|9----9----11----11--------------9----9----|

G|----------------------------------|
D|--11---11----13----13---9---------|
A|----------------------------9-----|
E|9----9----11----11----7--7----9-9-|


G|------------------------11---11-----------|
D|--11---11----13----13-------------11---11-|
A|----------------------9----9--------------|
E|9----9----11----11--------------9----9----|

G|--------------------------------------|
D|--11---11----13----13---9-------------|
A|--------------------------------------|
E|9----9----11----11----7--7-6-9--2/(4)-|

Pre-chorus:

G|-------------------------------------------------| 
D|------------------------------------------6-/18\-| 
A|------------------------------------6-8-9--------| You can add some dead
E|6-6---4-4---2-2---2-2-4--6-6---4-4---------------|       notes here

Chorus:

G|----------------------------------------------------------------|
D|----------------------------------------------------------------|
A|--------------------------------6-6-6-6-6-6-6-6-----------------|
E|9-9-9-9-9-9-9-9-4-4-4-4-4-4-4-4-----------------2-2-2-2-2-2-4-6-|

G|----------------------------------------------------------------|
D|----------------------------------------------------------------|
A|------------------------------------------------6-8-9-11--11-11-|
E|9-9-9-9-9-9-9-9-4-4-4-4-4-4-4-4-2-2-2-2-1-1-1-1-----------------|

Verse:

G|-------------------------11---11-----------|
D|--------11----13----13-------------11---11-|
A|-----------------------9----9--------------|
E|2/9-9-9----11----11--------------9----9----|

G|-----------------------------------|
D|--11---11----13----13---9----------|
A|---------------------------9-------|
E|9----9----11----11----7--7---9--9--|

G|------------------------11---11-----------|
D|--11---11----13----13-------------11---11-|
A|----------------------9----9--------------|
E|9----9----11----11--------------9----9----|

G|-------------------------------------|
D|--11---11----13----13---9------------|
A|-------------------------------------|
E|9----9----11----11----7--7-6-9-2/(4)-|

Pre-chorus:

G|-------------------------------------------------|
D|------------------------------------------6-/18\-| 
A|------------------------------------6-8-9--------| 
E|6-6---4-4---2-2---2-2-4--6-6---4-4---------------|

Chorus:

G|----------------------------------------------------------------|
D|----------------------------------------------------------------|
A|--------------------------------6-6-6-6-6-6-6-6-9-9-9-9-9-9-8-6-|
E|9-9-9-9-9-9-9-9-4-4-4-4-4-4-4-4---------------------------------|

G|----------------------------------------------------------------|
D|----------------------------------------------------------------|
A|------------------------------------------------6-8-9-11--11-11-|
E|9-9-9-9-9-9-9-9-4-4-4-4-4-4-4-4-2-2-2-2-1-1-1-1-----------------|

LA, LA, LA part:

G|---------------------------------|
D|---------------------------------|
A|---------------------------------|
E|9----7-9----7-9----16\---4-4-4-4-|

Bridge:

G|------------------------11---11----------|
D|--11---11----13----13-------------11-----|
A|----------------------9----9-------------|
E|9----9----11----11--------------9----7-8-|

G|------------------------------------|
D|--11---11----13----13---9-----------|
A|---------------------------9--------|
E|9----9----11----11----7--7---99-7-8-|

G|------------------------11---11----------|
D|--11---11----13----13-------------11-----|
A|----------------------9----9-------------|
E|9----9----11----11--------------9----9-7-|

G|--------------------------------------|
D|--11---11----13----13---9-------------|
A|----------------------------9---------|
E|9----9----11----11----7---7---9-9-9-9-|

Pre-chorus:

G|------------------------|    |------------------------------|
D|------------------------|    |------------------------------| 
A|------------------------|    |------------6-4---------------| 
E|6-6---4-4---2-2---2-2-4-| x3 |6-6---4-4-------7~------7/19\-|

Chorus:

G|----------------------------------------------------------------|
D|----------------------------------------------------------------|
A|--------------------------------6-6-6-6-6-6-6-6-----------------|
E|9-9-9-9-9-9-9-9-4-4-4-4-4-4-4-4-----------------2-2-2-2-2-2-4-6-|

G|--------------------------------------------------------------------|
D|--------------------------------------------------------------------|
A|--------------------------------9-9-9-9-8-8-8-8-6-6-8-9-11----11----|
E|9-9-9-9-9-9-9-9-4-4-4-4-4-4-4-4----------------------------11----11-|

G|----------------------------------------------------------------|
D|----------------------------------------------------------------|
A|--------------------------------6-6-6-6-6-6-6-6-----------------|
E|9-9-9-9-9-9-9-9-4-4-4-4-4-4-4-4-----------------2-2-2-2-2-2-4-6-|

G|--------------------------------------------------------------------|
D|--------------------------------------------------------------------|
A|------------------------------------------------6-6-6-6-11----11----|
E|9-9-9-9-9-9-9-9-4-4-4-4-4-4-4-4-2-2-2-2-1-1-1-1------------11----11-|

G|----------------------------------------------------------------|
D|----------------------------------------------------------------|
A|--------------------------------6-6-6-6-6-6-6-6-9-9-9-9-9-9-8-6-|
E|9-9-9-9-9-9-9-9-4-4-4-4-4-4-4-4---------------------------------|

G|--------------------------------------------------------------------|
D|--------------------------------------------------------------------|
A|------------------------------------------------6-6-6-6-11----11-11-|
E|9-9-9-9-9-9-9-9-4-4-4-4-4-4-4-4-2-2-2-2-1-1-1-1------------11-------|

Keep on movin' keep on movin' on.... 

G|--------------------|
D|--------------------|
A|---------/16~------\|
E|9~------------------| ...and finish with 9th fret on E.

x  dead note
() ghost note
/  slide up
\  slide down
h  hammer-on
p  pull-off
~  let ring
            
Submit corrections



        Hot Fudge lessons Hard to play? Try these video lessons and learn fast Hot Fudge lessons
        
↑ Back to top | Tablatures and chords for acoustic guitar and electric guitar, ukulele, drums are parodies/interpretations of the original songs. You may use it for private study, scholarship, research or language learning purposes only