» » »

Rise Against - Art Of Losing Bass

Artists:  A B C D E F G H I J K L M N O P Q R S T U V W X Y Z # 

Art Of Losing Bass

(ver. 2) Click to play this song!
Rise Against
 Rating:
4/5 (4 votes)


 Art Of Losing lessons Tabs too difficult? Try these video lessons and learn fast
 
                Band: Rise Against
Bassist: Joe Principe

INTRO

G|---------------------------------|---------------------------------|
D|---------------------------------|---------------------------------|
A|-7---7-5---5-7-------8---7---5---|-7---7-5---5-7-------8---7---5---| 
E|---------------------------------|---------------------------------|
   1 + + + 2 + + + 3 + + + 4 + + +   1 + + + 2 + + + 3 + + + 4 + + + 

G|---------------------------------|---------------------------------|
D|---------------------------------|---------------------------------|
A|-7---7-5---5-7-------8---7---5---|-10--109---9-7-------9---7---5---| 
E|---------------------------------|---------------------------------|
   1 + + + 2 + + + 3 + + + 4 + + +   1 + + + 2 + + + 3 + + + 4 + + + 

G|---------------------------------|---------------------------------|
D|---------------------------------|---------------------------------|
A|-7---7-5---5-7-------8---7---5---|-7---7-5---5-7-------8---7---5---| 
E|---------------------------------|---------------------------------|
   1 + + + 2 + + + 3 + + + 4 + + +   1 + + + 2 + + + 3 + + + 4 + + + 

G|---------------------------------|---------------------------------||
D|---------------------------------|---------------------------------||
A|-7---7-5---5-7-------8---7---5---|-7---------------5-----5-----5---|| 
E|---------------------------------|---------------------------------||
   1 + + + 2 + + + 3 + + + 4 + + +   1 + + + 2 + + + 3 + + + 4 + + + 

VERSE

G|---------------------------------|---------------------------------|
D|---------------------------------|---------------------------------|
A|-7---7-5---5-7-------8---7---5---|-7---7-5---5-7-------8---7---5---| 
E|---------------------------------|---------------------------------|
   1 + + + 2 + + + 3 + + + 4 + + +   1 + + + 2 + + + 3 + + + 4 + + + 

G|---------------------------------|---------------------------------|
D|---------------------------------|---------------------------------|
A|-7---7-5---5-7-------8---7---5---|-10--109---9-7-------9---7---5---| 
E|---------------------------------|---------------------------------|
   1 + + + 2 + + + 3 + + + 4 + + +   1 + + + 2 + + + 3 + + + 4 + + + 

G|---------------------------------|---------------------------------|
D|---------------------------------|---------------------------------|
A|-7---7-5---5-7-------8---7---5---|-7---7-5---5-7-------8---7---5---| 
E|---------------------------------|---------------------------------|
   1 + + + 2 + + + 3 + + + 4 + + +   1 + + + 2 + + + 3 + + + 4 + + + 

G|---------------------------------|---------------------------------||
D|---------------------------------|---------------------------------||
A|-7---7-5---5-7-------8---7---5---|-10--109---9-7-------7---7---5---|| 
E|---------------------------------|---------------------------------||
   1 + + + 2 + + + 3 + + + 4 + + +   1 + + + 2 + + + 3 + + + 4 + + + 

CHORUS

G|-----------------|-----------------|-----------------|-----------------|
D|-----------------|-----------------|-----------------|-----------------|
A|-3-33-33---------|-2-22-22-2-2-2-2-|-3-33-33---------|-2-22-22-0-0-----|
E|---------3-33-33-|-----------------|---------3-33-33-|-------------3-3-|
   1 + 2 + 3 + 4 +   1 + 2 + 3 + 4 +   1 + 2 + 3 + 4 +   1 + 2 + 3 + 4 +  

G|-----------------|-----------------|-----------------|-----------------||
D|-----------------|-----------------|-----------------|-----------------||
A|-3-33-33---------|-2-22-22-2-22-22-|-3-33-33---------|-2-22-22-0-------||
E|---------3-33-33-|-----------------|---------3-33-33-|------------3--2-||
   1 + 2 + 3 + 4 +   1 + 2 + 3 + 4 +   1 + 2 + 3 + 4 +   1 + 2 + 3 + 4 +  

INTERLUDE

G|-----------------|-----------------||
D|-----------------|-----------------||
A|-----------------|---------5--5--5-||
E|-0-00-00-0-00-00-|-0-00-00---------||
   1 + 2 + 3 + 4 +   1 + 2 + 3 + 4 +    

VERSE

G|---------------------------------|---------------------------------|
D|---------------------------------|---------------------------------|
A|-7---7-5---5-7-------8---7---5---|-7---7-5---5-7-------8---7---5---| 
E|---------------------------------|---------------------------------|
   1 + + + 2 + + + 3 + + + 4 + + +   1 + + + 2 + + + 3 + + + 4 + + + 

G|---------------------------------|---------------------------------|
D|---------------------------------|---------------------------------|
A|-7---7-5---5-7-------8---7---5---|-10--109---9-7-------9---7---5---| 
E|---------------------------------|---------------------------------|
   1 + + + 2 + + + 3 + + + 4 + + +   1 + + + 2 + + + 3 + + + 4 + + + 

G|---------------------------------|---------------------------------|
D|---------------------------------|---------------------------------|
A|-7---7-5---5-7-------8---7---5---|-7---7-5---5-7-------8---7---5---| 
E|---------------------------------|---------------------------------|
   1 + + + 2 + + + 3 + + + 4 + + +   1 + + + 2 + + + 3 + + + 4 + + + 

G|---------------------------------|---------------------------------||
D|---------------------------------|---------------------------------||
A|-7---7-5---5-7-------8---7---5---|-10--109---9-7-------7---7---5---|| 
E|---------------------------------|---------------------------------||
   1 + + + 2 + + + 3 + + + 4 + + +   1 + + + 2 + + + 3 + + + 4 + + + 

CHORUS

G|-----------------|-----------------|-----------------|-----------------|
D|-----------------|-----------------|-----------------|-----------------|
A|-3-33-33---------|-2-22-22-2-2-2-2-|-3-33-33---------|-2-22-22-0-0-----|
E|---------3-33-33-|-----------------|---------3-33-33-|-------------3-3-|
   1 + 2 + 3 + 4 +   1 + 2 + 3 + 4 +   1 + 2 + 3 + 4 +   1 + 2 + 3 + 4 +  

G|-----------------|-----------------|-----------------|-----------------||
D|-----------------|-----------------|-----------------|-----------------||
A|-3-33-33---------|-2-22-22-2-22-22-|-3-33-33---------|-2-22-22-0-------||
E|---------3-33-33-|-----------------|---------3-33-33-|------------3--2-||
   1 + 2 + 3 + 4 +   1 + 2 + 3 + 4 +   1 + 2 + 3 + 4 +   1 + 2 + 3 + 4 +  

INTERLUDE

G|-----------------|-----------------|-----------------|-----------------|
D|-----------------|-----------------|-----------------|-----------------|
A|-----------------|---------5--5--5-|-----------------|-----------------|
E|-0-00-00-0-00-00-|-0-00-00---------|-0---------------|-----------------|
   1 + 2 + 3 + 4 +   1 + 2 + 3 + 4 +   1 + 2 + 3 + 4 +   1 + 2 + 3 + 4 +    

G|-----------------|-----------------|-----------------|-----------------|
D|-----------------|-----------------|-----------------|-----------------|
A|-----------------|-----------------|-----------------|-----------------|
E|-----------------|-----------------|-0---------------|-----------------|
   1 + 2 + 3 + 4 +   1 + 2 + 3 + 4 +   1 + 2 + 3 + 4 +   1 + 2 + 3 + 4 +    

G|-----------------|-----------------|-----------------|-----------------||
D|-----------------|-----------------|-----------------|-----------------||
A|-------3---------|-------2-3-2-0-2-|-------3---------|---2-3-2-0-2---0-|| 
E|-0-0-0---3-3-3-0-|-0-0-0-----------|-0-0-0---3-3-3-0-|-0-----------3---||
   1 + 2 + 3 + 4 +   1 + 2 + 3 + 4 +   1 + 2 + 3 + 4 +   1 + 2 + 3 + 4 +   

BRIDGE

G|-----------------|-----------------|-----------------|-----------------|
D|-----------------|-----------------|-----------------|-----------------|
A|-------3---------|-------2-3-2-0-2-|-------3---------|---2-3-2-0-2---0-|
E|-0-0-0---3-3-3-0-|-0-0-0-----------|-0-0-0---3-3-3-0-|-0-----------3---|
   1 + 2 + 3 + 4 +   1 + 2 + 3 + 4 +   1 + 2 + 3 + 4 +   1 + 2 + 3 + 4 +   

G|-----------------|-----------------|-----------------|-----------------|
D|-----------------|-----------------|-----------------|-----------------|
A|-------3---------|-------2-3-2-0-2-|-------3---------|---2-3-2-0-2---0-| 
E|-0-0-0---3-3-3-0-|-0-0-0-----------|-0-0-0---3-3-3-0-|-0-----------3---|
   1 + 2 + 3 + 4 +   1 + 2 + 3 + 4 +   1 + 2 + 3 + 4 +   1 + 2 + 3 + 4 + 

G|-----------------|-----------------|-----------------|-----------------|
D|-----------------|-----------------|-----------------|-----------------|
A|-------3---------|-------2-3-2-0-2-|-------3---------|---2-3-2-0-2---0-|
E|-0-0-0---3-3-3-0-|-0-0-0-----------|-0-0-0---3-3-3-0-|-0-----------3---|
   1 + 2 + 3 + 4 +   1 + 2 + 3 + 4 +   1 + 2 + 3 + 4 +   1 + 2 + 3 + 4 + 

G|-----------------|-----------------|-----------------|-----------------||
D|-----------------|-----------------|-----------------|-----------------||
A|-------3---------|-------2-3-2-0-2-|-------3---------|---2-3-2-0-2---0-||
E|-0-0-0---3-3-3-0-|-0-0-0-----------|-0-0-0---3-3-3-0-|-0-----------3---||
   1 + 2 + 3 + 4 +   1 + 2 + 3 + 4 +   1 + 2 + 3 + 4 +   1 + 2 + 3 + 4 + 

OUTRO

G|-----------------|-----------------|
D|-----------------|-----------------|
A|-----------------|-----------------| 
E|-0-------------0-|-0---------------|
   1 + 2 + 3 + 4 +   1 + 2 + 3 + 4 +     
            
Submit corrections



        Art Of Losing lessons Hard to play? Try these video lessons and learn fast Art Of Losing lessons
        
↑ Back to top | Tablatures and chords for acoustic guitar and electric guitar, ukulele, drums are parodies/interpretations of the original songs. You may use it for private study, scholarship, research or language learning purposes only