Home » R » Reo Speedwagon »

Reo Speedwagon - Cant Fight This Feeling solo Tabs

Artists:  A B C D E F G H I J K L M N O P Q R S T U V W X Y Z # 

Cant Fight This Feeling solo Tabs

(ver. 2) Click to play this song!
Reo Speedwagon
 Rating:
4.4/5 (11 votes)
                [Solo]

e|---------------------------------------------------------------------------|
B|///14-------12(14)---10---12--------17---12---14\\\\\\---------------------|
G|---------------------------------------------------------------------------|
D|---------------------------------------------------------------------------|
A|---------------------------------------------------------------------------|
E|---------------------------------------------------------------------------|

e|---------------------------------------------------------------------------|
B|---------------------------------------------------------------------------|
G|-----------------------------9---9(11)\\\\\\-------------------------------|
D|///11-------9(11)----7---9-----9-------------------------------------------|
A|---------------------------------------------------------------------------|
E|---------------------------------------------------------------------------|

e|---------------------------------------------------------------------------|
B|---------------------10--------9(10)-7-------------------------------------|
G|////11------9(11)-7--------------------------------------------------------|
D|---------------------------------------------------------------------------|
A|---------------------------------------------------------------------------|
E|---------------------------------------------------------------------------|

There are two versions here.
One on the record with Gary Richrath and another live with Steve Scorfina.

[Gary Richrath]
e|---21-17----17-19-17----19---21-17----19-17----19--------------------------|
B|---------17----------17------------17-------17-----------------------------|
G|---------------------------------------------------------------------------|
D|---------------------------------------------------------------------------|
A|---------------------------------------------------------------------------|
E|---------------------------------------------------------------------------|

[Steve Scorfina]
e|---14----12----14----12----14----------------------------------------------|
B|-----14----14----14----14----14--------------------------------------------|
G|-------14----14----14----14----14------------------------------------------|
D|---------------------------------------------------------------------------|
A|---------------------------------------------------------------------------|
E|---------------------------------------------------------------------------|

[Both]
e|---------------------------------------------------------------------------|
B|---17(19)-17(19)-17--------------------------------------------------------|
G|---------------------------------------------------------------------------|
D|---------------------------------------------------------------------------|
A|---------------------------------------------------------------------------|
E|---------------------------------------------------------------------------|            
Submit corrections

↑ Back to top | Tablatures and chords for acoustic guitar and electric guitar, ukulele, drums are parodies/interpretations of the original songs. You may use it for private study, scholarship, research or language learning purposes only