» » »

R.E.M. - Daysleeper Bass

Artists:  A B C D E F G H I J K L M N O P Q R S T U V W X Y Z # 

Daysleeper Bass

(ver. 1) Click to play this song!
R.E.M.
 Rating:
4/5 (4 votes)
                Daysleeper Bass Tab by R.E.M.

Stardard Tuning

INTRO
G|-------------5--------------|
D|-----2-/-5------------------|
A|-3--------------------------|
E|----------------------------|

VERSE
G|-------------------------------------------------|
D|-------------------------------------------------|
A|--12------12-10-----12-10--3-----0-3-------------|
E|-------------------------------------------------|

PRE-CHORUS
G|----------------------------|
D|----0-1--0--0-1-3--5--------|
A|--3-------------------------|
E|----------------------------|

CHORUS
G|-------------------------------------------------------|
D|--------0------------------0---------------------------|
A|-0-2-3----0-2-3-----0-2-3----0-2-3-----0-2-3-----------|
E|-----------------3------------------3------------------|

ENDING PART
G|---------------------|
D|---------------------|
A|-0-2-3---------------|
E|---------------------|

INTRO
VERSE
PRE-CHORUS
CHORUS
REPEAT INTRO
VERSE
PRE-CHORUS
CHORUS
REPEAT INTRO
VERSE
PRE-CHORUS
CHORUS (X 4)
ENDING PART

SYMBOLS: / ---> slide up

listen carefully to the song, it's simple but really amazing! this works!
            
Submit corrections

↑ Back to top | Tablatures and chords for acoustic guitar and electric guitar, ukulele, drums are parodies/interpretations of the original songs. You may use it for private study, scholarship, research or language learning purposes only