» » »

Red Hot Chili Peppers - Сalifornication Tabs

Artists:  A B C D E F G H I J K L M N O P Q R S T U V W X Y Z # 

Сalifornication Tabs

(ver. 1) Click to play this song!
Red Hot Chili Peppers
 Rating:
4.3/5 (23 votes)

 Сalifornication  lessons Tabs too difficult? Try these video lessons and learn fast
 
                [Solo]

e|----------------------------|---------------------------------------------------------|
B|--10-8-10---10-8-10-8-------|-------8---------------------------------8---8--10s12-10-|
G|----------------------9--9--|--7s9------------------5-7B7-5-7-5---7/9---9-------------|
D|----------------------------|----------7p5-7------7-----------------------------------|
A|----------------------------|---------------------------------------------------------|
E|----------------------------|---------------------------------------------------------|

e|----8----10s12---12--12--12-|-12-----------------------------------------|
B|-10--10---------------------|---15-13-15-13-12-13---12-------------------|
G|----------------------------|---------------------14---14-12-14-14-14----|
D|----------------------------|--------------------------------------------|
A|----------------------------|--------------------------------------------|
E|----------------------------|--------------------------------------------|

e|-12------------------------------------|-12-----------------------------------|
B|----15-13-15-13-12-13-12----12---------|----15-13-15-13-12-13-12----12--------|
G|-------------------------14----14-12-14|-------------------------14----14--12-|
D|---------------------------------------|--------------------------------------|
A|---------------------------------------|--------------------------------------|
E|---------------------------------------|--------------------------------------|

e|-12------------------------------------|-----------------------------|---------------------------------|
B|----15-13-15-13-12-13-12----12---------|-10-8---8--------------------|------5-----5-----5-----5-----5--|
G|-------------------------14----14-12---|------9---9-7-9--7----7------|----5-----5-----5-----5-----5----|
D|---------------------------------------|-------------------10---10-9-|--7-----7-----7-----7-----7------|
A|---------------------------------------|-----------------------------|---------------------------------|
E|---------------------------------------|-----------------------------|---------------------------------|

e|---------------------------------|---------------------------------|---------------------------------|
B|------6----6------8-----6-----5--|------5-----5-----5-----5-----5--|------6----6------8-----6-----5--|
G|----5-----5-----5-----5-----5----|----5-----5-----5-----5-----5----|----5-----5-----5-----5-----5----|
D|--7-----7-----7-----7-----7------|--7-----7-----7-----7-----7------|--7-----7-----7-----7-----7------|
A|---------------------------------|---------------------------------|---------------------------------|
E|---------------------------------|---------------------------------|---------------------------------|

e|-------------------------12-------12-------12----------|-15-------15-------15-------15------------|
B|-12-------------13----------13-------13-------13-------|----13-------13-------13-------13---------|
G|----14-12h14-14----14-14-------14-------14-------14----|-------14-------14-------14-------14------|
D|-------------------------------------------------------|------------------------------------------|
A|-------------------------------------------------------|------------------------------------------|
E|-------------------------------------------------------|------------------------------------------|

e|-12-------12-------12-------12------------|-15-------15-------15-------15------------|
B|----13-------13-------13-------13---------|----13-------13-------13-------13---------|
G|-------14-------14-------14-------14------|-------14-------14-------14-------14------|
D|------------------------------------------|------------------------------------------|
A|------------------------------------------|------------------------------------------|
E|------------------------------------------|------------------------------------------|

e|--------------------------12---12--------------------------------|---------------------------------------|
B|----------------------13-----------15-13-15-13-12-13-------------|--10-8---------------------------------|
G|-14-12-14-14----12h14--------------------------------14------14--|-------10-9-10-9---9-7----7------------|
D|-----------------------------------------------------------------|-----------------------10---10-9-10-9--|
A|-----------------------------------------------------------------|---------------------------------------|
E|-----------------------------------------------------------------|---------------------------------------|

e|----------------------------------------------------|
B|----------------------------------------------------|
G|-7-9-----------------12----12-14-14-----------------|
D|-----7--7-10-7-12-14----14-----------12-10-12-12-12-|
A|----------------------------------------------------|
E|----------------------------------------------------|

e|---------------------------------------------------------|
B|--------------------------------13----13s15-15s17--17-17-|
G|---------12----12-14-14b--14-14----14--------------------|
D|10-12-14----14-------------------------------------------|
A|---------------------------------------------------------|
E|---------------------------------------------------------|

e|----0-10-0-10-0-0-10-0-0-8-0-0-0-0-0-|-12-0-0-10-0-0-8-0-0-7-0-0-5-0-0-0-------------|
B|-17------------------------------0-0-|-----------------------------------------------|
G|-------------------------------------|-----------------------------------------------| (x3) 
D|-------------------------------------|-----------------------------------------------|
A|-------------------------------------|-----------------------------------------------|
E|-------------------------------------|-----------------------------------------------|

e|-15-0-0-12-0-0-15-0-0-12-0-0-15-0-17-0----| 17-0-0-17-0-0-17-0-0-17-0-0-17-0-17b19---------|
B|------------------------------------------|------------------------------------------------|
G|------------------------------------------|------------------------------------------------|
D|------------------------------------------|------------------------------------------------|
A|------------------------------------------|------------------------------------------------|
E|------------------------------------------|------------------------------------------------|

e|--17~---------15----15--17~------17-15-13--12-13-12-|----13-12----12---------------------------------------|
B|-----------------17---------------------------------|----------15----15-13-15-13-12-13-12----12------------|
G|----------------------------------------------------|-------------------------------------14----14-14-14---|
D|----------------------------------------------------|------------------------------------------------------|
A|----------------------------------------------------|------------------------------------------------------|
E|----------------------------------------------------|------------------------------------------------------|

e|-12------------------------------------|-12-------------------------------------------|
B|----15-13-15-13-12-13-12----12---------|----15-13-15-13-12-13-12----12----------------|
G|-------------------------14----14-12---|-------------------------14----14--12-14-12-14|
D|---------------------------------------|----------------------------------------------|
A|---------------------------------------|----------------------------------------------|
E|---------------------------------------|----------------------------------------------|

e|-12--------------------------------------------------------------------------|
B|----15-13-15-13-12-13-12----12-----------------------------------------------|
G|-------------------------14----14-12-14-12----12-14-12----12-14--------------|
D|-------------------------------------------14----------14--------------------|
A|-----------------------------------------------------------------------------|
E|-----------------------------------------------------------------------------|            
Submit corrections


        Сalifornication  lessons Hard to play? Try these video lessons and learn fast Сalifornication  lessons
        
↑ Back to top | Tablatures and chords for acoustic guitar and electric guitar, ukulele, drums are parodies/interpretations of the original songs. You may use it for private study, scholarship, research or language learning purposes only