» » »

Razorlight - You And The Rest Bass

Artists:  A B C D E F G H I J K L M N O P Q R S T U V W X Y Z # 

You And The Rest Bass

(ver. 1) Click to play this song!
Razorlight
 Rating:
4/5 (4 votes)


 You And The Rest lessons Tabs too difficult? Try these video lessons and learn fast
 
                Bass comes in on second verse
G|------------------------|
D|--2-----------2------4--|
A|2----2-4----2----------4|
E|------------------------|

Chorus
G|---------1-------------------1----------|
D|444444444-----------444444444-----------|
A|----------2222222224----------2222222224|
E|----------------------------------------|

Middle Bit
G|22222224-----------------------22222224-----------------------------|
D|---------------22221111-------2--------------22222-1----------------|
A|--------2222224--------4444444---------222224--------4-44-44-4-44-44|
E|--------------------------------------------------------------------|

G|22222224-------------------------22222224---------|
D|----------------222211111-------2----------------2|
A|--------22222224---------4444444---------22222224-|
E|--------------------------------------------------|

End
G|-------4-6---4-6--|
D|2----------------4|
A|------------------|
E|------------------|
            
Submit corrections



        You And The Rest lessons Hard to play? Try these video lessons and learn fast You And The Rest lessons
        
↑ Back to top | Tablatures and chords for acoustic guitar and electric guitar, ukulele, drums are parodies/interpretations of the original songs. You may use it for private study, scholarship, research or language learning purposes only