» » »

Razorlight - Vice Bass

Artists:  A B C D E F G H I J K L M N O P Q R S T U V W X Y Z # 

Vice Bass

(ver. 1) Click to play this song!
Razorlight
 Rating:
4/5 (4 votes)


 Vice lessons Tabs too difficult? Try these video lessons and learn fast
 
                
This is a novice/intermediate song 

Regular tuning: EADG



Key:
     r-means let it ring until next note



60 beats per minute



(Play 4 times)
|----------------|
|----------------|
|--------5r—7r---|
|5r--------------|
 1 a 2 a 3 a 4 a

|----------------|
|----------------|
|5r------7r------|
|----------------|
 1 a 2 a 3 a 4 a


120 beats per minute

|------------|------------|
|------------|------------|
|------------|------------|
|5---5-5---0-|5---5-5---0-|
 1 a 2 a 3 a  1 a 2 a 3 a

|------------|------------|
|----------0-|------------|
|------------|------------|
|2---2-2-----|2---2-2---0-|
 1 a 2 a 3 a  1 a 2 a 3 a

|------------|------------|
|------------|------------|
|------------|------------|
|5---5-5---0-|5---5-5---0-|
 1 a 2 a 3 a  1 a 2 a 3 a 

|------------|----------------|
|----------0-|----------------|
|------------|----------------|    (34 seconds)
|2---2-2-----|2---2-2---8-8-9-|
 1 a 2 a 3 a  1 a 2 a 3 a 4 a



|------------|------------|------------|
|0---0-0-----|2---2-2-----|4---4-4-----|
|------------|------------|------------|
|------------|------------|------------|
 1 a 2 a 3 a  1 a 2 a 3 a  1 a 2 a 3 a

|------------|
|4---4-4-----|
|------------|
|------------|
 1 a 2 a 3 a

|------------|------------|------------|
|0---0-0-----|2---2-2-----|0---0-0-----|
|------------|------------|------------|
|------------|------------|------------|
 1 a 2 a 3 a  1 a 2 a 3 a  1 a 2 a 3 a

|------------|
|2---2-2-----|
|------------|
|------------|
 1 a 2 a 3 a

(Play 2 times)(means for both measures, from now on)
|----------------|----------------|
|0r----0-0-0-0---|2r----2-2-2-2---|
|----------------|----------------|
|----------------|----------------|
 1 a 2 a 3 a 4 a  1 a 2 a 3 a 4 a

(Play 4 times)
|----------------|----------------|
|----------------|0-0-0-0-2-2-2-2-|
|0-0-0-0-0-0-0-0-|----------------|
|----------------|----------------|
 1 a 2 a 3 a 4 a  1 a 2 a 3 a 4 a


                            _
|------------|------------|  \
|------------|------------|   \
|------------|------------|    \__
|5---5-5---0-|5---5-5---0-|       |
 1 a 2 a 3 a  1 a 2 a 3 a         |_play this 2 times
                                  |
|------------|------------|     __|
|----------0-|------------|    /
|------------|------------|   /
|2---2-2-----|2---2-2---0-| _/
 1 a 2 a 3 a  1 a 2 a 3 a


|------------|-----------|
|------------|-----------|
|------------|-----------|
|5---5-5---0-|5---5-5---0|
 1 a 2 a 3 a  1 a 2 a 3 a 

|------------|----------------|
|----------0-|----------------|
|------------|----------------|
|2---2-2-----|2---2-2---8-8-9-|
 1 a 2 a 3 a  1 a 2 a 3 a 4 a


|------------|------------|------------|
|0---0-0-----|2---2-2-----|4---4-4-----|
|------------|------------|------------|
|------------|------------|------------|
 1 a 2 a 3 a  1 a 2 a 3 a  1 a 2 a 3 a

|------------|
|4---4-4-----|
|------------|
|------------|
 1 a 2 a 3 a

(Play 2 times)
|----------------|----------------|
|0r----0-0-0-0---|2r----2-2-2-2---|
|----------------|----------------|
|----------------|----------------|
 1 a 2 a 3 a 4 a  1 a 2 a 3 a 4 a

(Play 4 times)
|----------------|----------------|
|----------------|0-0-0-0-2-2-2-2-|
|0-0-0-0-0-0-0-0-|----------------|
|----------------|----------------|
 1 a 2 a 3 a 4 a  1 a 2 a 3 a 4 a


|----------------|----------------|
|4-4---4-4---0---|4-4---0-0-2-----|
|----------------|----------------|
|----------------|----------------|
 1 a 2 a 3 a 4 a  1 a 2 a 3 a 4 a

(Play 4 times)
|----------------|----------------|
|----------------|0-0-0-0-2-2-2-2-|
|0-0-0-0-0-0-0-0-|----------------|
|----------------|----------------|
 1 a 2 a 3 a 4 a  1 a 2 a 3 a 4 a

(Play 1 time)
|----------------|----------------|
|----------------|0-0-0-0-0-0-0-0-|
|0-0-0-0-0-0-0-0-|----------------|
|----------------|----------------|
 1 a 2 a 3 a 4 a  1 a 2 a 3 a 4 a

(play 9 times)
|----------------|----------------|
|----------------|0-0-0-0-2-2-2-2-|
|0-0-0-0-0-0-0-0-|----------------|
|----------------|----------------|
 1 a 2 a 3 a 4 a  1 a 2 a 3 a 4 a

(play 1 times)
|----------------|7-7-7-7-7---7---|
|7-7-7-7-7-7-7-7-|----------7---7-|
|----------------|----------------|
|----------------|----------------|
 1 a 2 a 3 a 4 a  1 a 2 a 3 a 4 a

(play 2 times)
|----------------|7-7-7-7-7-16--16|
|7-7-7-7-7-7-7-7-|------------12--|
|----------------|----------------|
|----------------|----------------|
 1 a 2 a 3 a 4 a  1 a 2 a 3 a 4 a

(play 1 times)
|----------------|7-7-7-7-7-9-7-9-|
|7-7-7-7-7-7-7-7-|----------------|
|----------------|----------------|
|----------------|----------------|
 1 a 2 a 3 a 4 a  1 a 2 a 3 a 4 a

|----------------|----------------|
|4-4---4-4---0---|4-4---0-0-2-----|
|----------------|----------------|
|----------------|----------------|
 1 a 2 a 3 a 4 a  1 a 2 a 3 a 4 a

end
            
Submit corrections



        Vice lessons Hard to play? Try these video lessons and learn fast Vice lessons
        
↑ Back to top | Tablatures and chords for acoustic guitar and electric guitar, ukulele, drums are parodies/interpretations of the original songs. You may use it for private study, scholarship, research or language learning purposes only