» » »

Rasmus - No Fear Bass

Artists:  A B C D E F G H I J K L M N O P Q R S T U V W X Y Z # 

No Fear Bass

(ver. 1) Click to play this song!
Rasmus
 Rating:
4/5 (4 votes)


 No Fear lessons Tabs too difficult? Try these video lessons and learn fast
 
                i like this song a lot..then when i surfed over the net..
there's no one tab this accurately yet..
so i figured it out myself..hehe!
this is my first tab..im 100% sure this is accurate..SO PLEASE RATE MY TAB..
give me 5 stars! hehe!any question..? 
need guitarist!? contact me!! hehe!
good luck guys..and god bless..

-----------------------------------------------------------------------------
			     NO FEAR - The Rasmus
-----------------------------------------------------------------------------


Tuning: standard

[play this twice..]
G|--------------------------------------------------------|
D|--------------------------------------------------------|
A|------------------------------2-2--2-2--2---------------|
E|-4--4-4--4-4--4--0-0--0-0--0---------------2-2--2-2--4--|

[then play this after the intro..]
G|--------------|
D|--------------|
A|--------------|
E|-8--\6/-8--8--|

[verse..play it twice and strum each song 12 times..listen to the song for the right timing..]
G|---|---|---|---|---|---|---| 
D|---|---|---|---|---|---|---|
A|---|-6-|---|---|-4-|-6-|---|
E|-4-|---|-7-|-2-|---|---|-7-|

[then play this before the chorus kicks in..]
"chose the reaper"
G|--------------|
D|--------------|
A|--------------|
E|-8--\6/-8--8--|

[chorus..play this twice..]
G|--------------------------------------------------------|
D|--------------------------------------------------------|
A|------------------------------2-2--2-2--2---------------|
E|-4--4-4--4-4--4--0-0--0-0--0---------------2-2--2-2--4--|

[then play this..]
G|--------------|
D|--------------|
A|--------------|
E|-8--\6/-8--8--|

[verse..play it twice and strum each song 12 times..listen to the song for the right timing..]
G|---|---|---|---|---|---|---| 
D|---|---|---|---|---|---|---|
A|---|-6-|---|---|-4-|-6-|---|
E|-4-|---|-7-|-2-|---|---|-7-|

[then play this before the chorus kicks in..]
"from here to eternity"
G|--------------|
D|--------------|
A|--------------|
E|-8--\6/-8--8--|

[chorus..play this twice..]
G|--------------------------------------------------------|
D|--------------------------------------------------------|
A|------------------------------2-2--2-2--2---------------|
E|-4--4-4--4-4--4--0-0--0-0--0---------------2-2--2-2--4--|

[bridge.. play this twice..]
"ha aa aa..destination darkness.."
G|--------------------------|
D|--------------------------|
A|--------------------------|
E|--4-4---0-0---2-2---2-2---|

[play twice..this time do this a lil bit faster..]
G|--------------|
D|--------------|
A|--------------|
E|-8--\6/-8--8--|

[play twice..]
G|--------------------------------------------------------|
D|--------------------------------------------------------|
A|------------------------------2-2--2-2--2---------------|
E|-4--4-4--4-4--4--0-0--0-0--0---------------2-2--2-2--4--|

then repeat chorus..and thats it..]

| /  slide up
| \  slide down
| h  hammer-on
| p  pull-off
| ~  vibrato
| +  harmonic
| x  Mute note

thanks for my inspiration.. margarita trinidad baldemeca! ^_^
mwah! baaaaaaaaaaaaaaaaaaaaaaaaaaaaaaaaaaaaa! =))
=============================================================================
            
Submit corrections



        No Fear lessons Hard to play? Try these video lessons and learn fast No Fear lessons
        
↑ Back to top | Tablatures and chords for acoustic guitar and electric guitar, ukulele, drums are parodies/interpretations of the original songs. You may use it for private study, scholarship, research or language learning purposes only