» » »

Rascal Flatts - Life Is A Highway Bass

Artists:  A B C D E F G H I J K L M N O P Q R S T U V W X Y Z # 

Life Is A Highway Bass

(ver. 2) Click to play this song!
Rascal Flatts
 Rating:
4/5 (4 votes)


 Life Is A Highway lessons Tabs too difficult? Try these video lessons and learn fast
 
                -------------------------------------------------------------------------------
			     Rasacal Flatts - Life Is a Highway
-------------------------------------------------------------------------------


Tuning: Standart

Before the guitar riff comes in.

G|---------------------------------------------------------------------------|
D|---------------------------------------------------------------------------|
A|---------------------------------------------------------------------------|
E|--12\---/13----------------------------------------------------------------|

Intro & Chorus

G|---------------------------------------------------------------------------|
D|-----------------------------------------------------------3---------------|
A|--5-3-1-1----1-0----------1---3-3-----2p0-2p0---3-3-----/5---5-3-1-1-------|
E|-------------------1-1------1-----------------1----------------------------|

G|---------------------------------------------------------------------------|
D|---------------------------------------------------------------------------|
A|--/5---5-3-1-1----1-0----------1---3-3-----2p0-2p0---3-3-------------------|
E|----------------------1-1--------1-----------------1-----------------------|

Verse
this x 2
G|---------------------------------------------------------------------------|
D|---------------------------------------------------------------------------|
A|-1-1-1-1-1-1-1-1-----------------3-3-3-3-3-3-3-3-3-3-3-3-3-3-3-3-----------|
E|-----------------1-1-1-1-1-1-1-1-------------------------------------------|
this x 1
G|---------------------------------------------------------------------------|
D|---------------------------------------------------------------------------|
A|-5--5--5--5---3--3--3---3---1--1--1--1-------------------------------------|
E|----------------------------------------3-3-3-3-3-3-/13--------------------|

Bridge

G|---------------------------------------------------------------------------|
D|---------------------------------------------------------------------------|
A|----------------------------------5-5-5-5-5-5-5-5--3-3-3-3-3-3-3-----------|
E|-3-3-3-3-3-3-3-3--6-6-6-6-6-6-6-6------------------------------------------|

G|-----------------------------------10-9-7----------------------------------|
D|------------------------------------------7-10-10-10-10---------10-10-10-10|
A|---------------------------------------------------------------------------|
E|-3-3-3-3-3-3-3-3--6-6-6-6-6-6-6-6-----------------------8-8-8-8------------|


Thats Pretty mutch the whole song.

| /  slide up
| \  slide down
| h  hammer-on
| p  pull-off
| ~  vibrato
| +  harmonic
| x  Mute note
===============================================================================
            
Submit corrections



        Life Is A Highway lessons Hard to play? Try these video lessons and learn fast Life Is A Highway lessons
        
↑ Back to top | Tablatures and chords for acoustic guitar and electric guitar, ukulele, drums are parodies/interpretations of the original songs. You may use it for private study, scholarship, research or language learning purposes only