» » »

Rancid - Let Me Go Bass

Artists:  A B C D E F G H I J K L M N O P Q R S T U V W X Y Z # 

Let Me Go Bass

(ver. 3) Click to play this song!
Rancid
 Rating:
4/5 (4 votes)


 Let Me Go lessons Tabs too difficult? Try these video lessons and learn fast
 
                Let Me Go
Rancid
Rancid (2000)

Standard

Intro
|--------------------|
|------------------0-|
|-3--1-1--0-0--------|
|--------------3-3---|x3

|--------54333-5------|
|----------------3335-|
|-333333--------------|
|---------------------|x4


Verse
|--------54333-5------|
|----------------3335-|
|-333333--------------|
|---------------------|x8

Chorus
|-------------------------------------------------|
|-3-1-0-------------------------------------------|
|-------3-1---------0-1-2-3-2-1-0---0-1-2-3-2-1-0-|
|-----------0-3-1-1---------------1---------------|

|----------------------------------------------|
|---------0-1-2-3-1-0--------------------------|
|---0-2-3-------------3-1-0------0-1-2-3-2-1-0-|
|-1-------------------------3-1-1--------------|

|--------------------|
|------------------0-|
|-3--1-1--0-0--------|
|--------------3-3---|


Verse


Chorus


Verse


Before Bridge
|------------2---3---5-----------------|
|-3333333323---3---3---3-55555-4545658-|
|--------------------------------------|
|--------------------------------------|

Bridge
|----------------------------|
|--------------3~--1-0-------|
|-3~----1~---1---------1-3---|
|----------------------------|

|------------------------------|
|--------------0-1-3~--1-0-----|
|-3~----1----1-------------1-3-|
|------------------------------|x3

|----------------------|
|----------------------|
|-33----11---------0-1-|
|-----------11---1-----|x2

|------------------------|
|------------------------|
|-33~----11~---------0-1-|
|-----------11~---1------|x2

|-----------------------------------------|
|-------------------------0-1-3-3-3-1-0---|
|-333333333333333211111-1---------------1-|
|-----------------------------------------|x2

|-------------------------------------------|
|-------------------------0-1-3-3-3-3-3-3-3-|
|-333333333333333211111-1-------------------|
|-------------------------------------------|

Chorus x2

Outro
|--------------------|
|------------------0-|
|-3--1-1--0-0--------|
|--------------3-3---|x2

|-----------------------|
|-----------------0-----|
|-3--1-1--0-0-----------|
|-------------3-3----1~~|
            
Submit corrections



        Let Me Go lessons Hard to play? Try these video lessons and learn fast Let Me Go lessons
        
↑ Back to top | Tablatures and chords for acoustic guitar and electric guitar, ukulele, drums are parodies/interpretations of the original songs. You may use it for private study, scholarship, research or language learning purposes only