» » »

Rancid - Lethal Bass

Artists:  A B C D E F G H I J K L M N O P Q R S T U V W X Y Z # 

Lethal Bass

(ver. 1) Click to play this song!
Rancid
 Rating:
4/5 (4 votes)

 Lethal lessons Tabs too difficult? Try these video lessons and learn fast
 
                RANCID: LETHAL
SKALIENTE (COMPILATION: GRITA! RECORDS): 1998
TUNING: STANDARD E.A.D.G

INTRO: X 4

G:|-----------------|
D:|----3--3---------|
A:|1-1--1---1-1-----|
E:|-------------1-4-|

VERSE: X 8

G:|-----------------|
D:|----3--3---------|
A:|1-1--1---1-1-----|
E:|-------------1-4-|

CHORUS: X 2

G:|---------------------------|
D:|----3--3-------------------|
A:|1-1--1---0-------6--6------|
E:|-------------4-4--4---3----|

GAP: X 4

G:|-----------------|
D:|----3--3---------|
A:|1-1--1---1-1-----|
E:|-------------1-4-|

VERSE: AFTER GAP THERE ISNT ANY BASS AT ALL FOR THIS VERSE


VERSE: X 4

G:|-----------------|
D:|----3--3---------|
A:|1-1--1---1-1-----|
E:|-------------1-4-|

CHORUS: X 2

G:|---------------------------|
D:|----3--3-------------------|
A:|1-1--1---0-------6--6------|
E:|-------------4-4--4---3----|

GAP: X 4

G:|-----------------|
D:|----3--3---------|
A:|1-1--1---1-1-----|
E:|-------------1-4-|

VERSE: AND AGAIN AFTER THE 2ND GAP THERE IS NO BASS IN THIS VERSE


VERSE: X 2
                     3RD TIME
G:|-----------------|--------|
D:|----3--3---------|--------|
A:|1-1--1---1-1-----|1-------|
E:|-------------1-4-|--------|

CHORUS: X 2

G:|---------------------------|
D:|----3--3-------------------|
A:|1-1--1---0-------6--6------|
E:|-------------4-4--4---3----|

ENDING: X 4

AFTER4 TH TIME: CLASSIC RANCID ENDING A SONG WITH ONE LAST STRUM, WAIT FOR THE DRUMS AND 
YOUR DONE.
G:|-----------------|---------------------|
D:|----3--3---------|---------------------|
A:|1-1--1---1-1-----|-------------------1-|
E:|-------------1-4-|---------------------|

THATS IT. THE TAB IS IN THE RIGHT ORDER, SO FOLLOW THE TAB WHILST PLAYIN AND HAVE FUN. 
EASY SONG, AND NOT MANY HAVE HEARD THIS SONG SO ENJOY. CHEERS!!!
            
Submit corrections


        Lethal lessons Hard to play? Try these video lessons and learn fast Lethal lessons
        
↑ Back to top | Tablatures and chords for acoustic guitar and electric guitar, ukulele, drums are parodies/interpretations of the original songs. You may use it for private study, scholarship, research or language learning purposes only