» » »

Ramones - Teenage Lobatomy Bass

Artists:  A B C D E F G H I J K L M N O P Q R S T U V W X Y Z # 

Teenage Lobatomy Bass

(ver. 1) Click to play this song!
Ramones
 Rating:
4/5 (4 votes)


 Teenage Lobatomy lessons Tabs too difficult? Try these video lessons and learn fast
 
                This song kicks and uhhhhhhh........ its easy to play cause im a guitarist


g]----------------------------------------------------------------------------------
d]----------------------------------------------------------------------------------
a]---7 9-----------7-9--------------------------------------------------------------
e]-------99999999------99999999-----------------------------------------------------

g]----------------------------------------------------------------------------------
d]----------------------------------------------------------------------------------
a]---9 99--7----9 99---9-99--7----9-99--7-------------------------------------------
e]-----------7-------7---------7----------7-----------------------------------------

g]----------------------------------------------------------------------------------
d]----------------------------------------------------------------------------------
a]--------77777777-----77777777-----------------------------------------------------
e]---7-5-----------7-5--------------------------------------------------------------


g]----------------------------------------------------------------------------------
d]----------------------------------------------------------------------------------
a]--------------------9999999999999999----------------------------------------------
e]---7777777777777777---------------------------------------------------------------
            
Submit corrections



        Teenage Lobatomy lessons Hard to play? Try these video lessons and learn fast Teenage Lobatomy lessons
        
↑ Back to top | Tablatures and chords for acoustic guitar and electric guitar, ukulele, drums are parodies/interpretations of the original songs. You may use it for private study, scholarship, research or language learning purposes only