» » »

Rammstein - Mann Gegen Mann Bass

Artists:  A B C D E F G H I J K L M N O P Q R S T U V W X Y Z # 

Mann Gegen Mann Bass

(ver. 2) Click to play this song!
Rammstein
 Rating:
4/5 (4 votes)


 Mann Gegen Mann lessons Tabs too difficult? Try these video lessons and learn fast
 
                Band: Rammstein

There’s a few good bass riffs in this song so I decided to give it a go.

4 string

Main Riff
F|--------------------------------|
C|--------------------------------|
G|--------------------------------|
C|---0-----8----0-------5---3--5--|

Chorus
F|--------------------------------| x3
C|--------------------------------|
G|--------------------------------|
C|---0-----8----0-------5---3--5--|

F|--------------------------------|
C|--------------------------------|
G|------------------------3--3----|
C|---0-----8----0-----------------|

After first Chorus
F|--------------------------------|
C|--------------------------------|
G|---5r---------------------------|
C|--------------------------------|

Bridge
F|--------------------------------|
C|--------------------------------|
G|3-5---5---5---3-5---5---5--3-5-5|
C|--------------------------------| x2

F|--------------------------------|
C|--------------------------------|
G|3-1---1---1---3-1---1---1--3-1-1|
C|--------------------------------| x2

Bass solo
F|--------------------------------|
C|----3-2---------------3-2-------|
G|0-------1------3-0--------1---3-|
C|-------------5------------------|

Before end Chorus
F|--------------------------------|
C|--------------------------------|
G|--------------------------------|
C|0-0-0-8-8-8-0-0-0-5-5-5-3-3-5-5-|

5 string

Main riff
G|--------------------------------|
D|--------------------------------|
A|--------------------------------|
E|---------4------------1------1--|
B|---1----------1-----—-----4-----|

Chorus
G|--------------------------------| x3
D|--------------------------------|
A|--------------------------------|
E|---------4------------1------1--|
B|---1----------1----------—4-----|

G|--------------------------------|
D|--------------------------------|
A|------------------------1--1----|
E|---------4----------------------|
B|---1----------1-----------------|

After first Chorus
G|--------------------------------|
D|--------------------------------|
A|---3r---------------------------|
E|--------------------------------|
B|--------------------------------|

Bridge
G|--------------------------------|
D|--------------------------------|
A|--------------------------------|
E|6-8---8---8---6-8---8---8--6-8-8|
B|--------------------------------| x2

G|--------------------------------|
D|--------------------------------|
A|--------------------------------|
E|6-4---4---4---6-4---4---6--4-4-4|
B|--------------------------------| x2

Bass solo
G|--------------------------------|
D|--------------------------------|
A|----5-4---------------5-4-------|
E|3-------4------6-3--------4---6-|
B|-------------6------------------|

Before end Chorus
G|--------------------------------|
D|--------------------------------|
A|--------------------------------|
E|------4-4-4-------1-1-1-----1-1-|
B|1-1-1-------1-1-1---—---4-4-----|

Song structure:
Main riff x20
Chorus x2
After first chorus x 1
Main riff x8
Chorus x2
Bridge x2
Chorus x1
Bass solo x2
Before end Chorus x2
Chorus x2


And that’s it. It should be ok but if not let me know.

Please rate!!!!

Enjoy!!!!
            
Submit corrections



        Mann Gegen Mann lessons Hard to play? Try these video lessons and learn fast Mann Gegen Mann lessons
        
↑ Back to top | Tablatures and chords for acoustic guitar and electric guitar, ukulele, drums are parodies/interpretations of the original songs. You may use it for private study, scholarship, research or language learning purposes only