» » »

Rammstein - Heirate Mich Bass

Artists:  A B C D E F G H I J K L M N O P Q R S T U V W X Y Z # 

Heirate Mich Bass

(ver. 2) Click to play this song!
Rammstein
 Rating:
4/5 (4 votes)


 Heirate Mich lessons Tabs too difficult? Try these video lessons and learn fast
 
                Main riff  
G|-----------------------------------------------------------------|  
D|*---------------------------------------------------------------*|  
A|*---------------------------------------------------------------*|x3  
E|--0---0---0---0---0---0---0---0---0---0---0---3---2---0---2---3--|  
Pm      .   .       .   .       .   .       .           .  

G|-------------------------------------|  
D|-------------------------------------|  
A|-------------------------------------|  
E|--0---0---0---0---0---0---0---0---0--|  
Pm      .   .       .   .       .  

Pre-chorus  
G|------------------------------------|   |---|  
D|-----------------------------------*|   |---|  
A|-----------------------------------*|x3 |---|  
E|--7------7---7---7---8---7---7---5--|   |-7-|  
Pm         .       .           .  

G|--------------------------------------------------------|  
D|-------------------------------------------------------*|  
A|-------------------------------------------------------*|x2  
E|--9-----9---9---9---9---9---9---9---9---9---10---9---7--|  
Pm        .       .   .       .   .       .  

End of pre-chorus  
G|------------------------------------------------------------------------------------|  
D|------------------------------------------------------------------------------------|  
A|------------------------------------------------------------------------------------|  
E|--9-----9---9---9---9---9---9---9---9---9---10---9---7---8-------8---8---8---8---8--|  
Pm        .       .   .       .   .       .                        .       .   .  

Solo  
G|-----------------------------------------------------------------|  
D|----------------------------------------------------------------*|  
A|----------------------------------------------------------------*|x3  
E|--7---7---7---7---7---7---7---7---7---7---7---7---7---8---7---5--|  
pm      .   .       .   .       .       .   .       .   .   .   .  

G|------------------------------------------------------------------|  
D|-----------------------------------------------------------------*|  
A|-----------------------------------------------------------------*|  
E|--9---9---9---9---9---9---9---9---9---9---9---9---9---10---9---5--|  
pm      .   .       .   .       .       .   .       .    .   .   .  
            
Submit corrections



        Heirate Mich lessons Hard to play? Try these video lessons and learn fast Heirate Mich lessons
        
↑ Back to top | Tablatures and chords for acoustic guitar and electric guitar, ukulele, drums are parodies/interpretations of the original songs. You may use it for private study, scholarship, research or language learning purposes only