» » »

Rage Against The Machine - Roll Right Bass

Artists:  A B C D E F G H I J K L M N O P Q R S T U V W X Y Z # 

Roll Right Bass

(ver. 2) Click to play this song!
Rage Against The Machine
 Rating:
4/5 (4 votes)


 Roll Right lessons Tabs too difficult? Try these video lessons and learn fast
 
                -------------------------------------------------------------------------------
			     ROLL RIGHT - Rage Against the Machine
-------------------------------------------------------------------------------


Tuning:Standard

chorus: rest 2 measures while guitar does this then come in
G|----------------------------------------|
D|-----11-0-9-0---------------------------|x2
A|--------------11-0-10-0-9-0-7-0---------|
E|-9-0----------------------------7-0-7-9-|

pre-verse: (with variations)
G|--------------------------------|
D|--------------------------------|x3
A|-4--44-7-x6-x5-x4--44-7-x6-x5-x-|
E|--------------------------------|

G|------------------------------|
D|------------------------------|
A|-4--44-7-x6-x5-x4--44-7-x6-x5-|
E|------------------------------|

verse: (with variations)
G|--------------------------------|
D|--------------------------------|x4
A|-4--44-7-x6-x5-x4--44-7-x6-x5-x-|
E|--------------------------------|

                           pre-verse and verse variations: (played randomly)
                           G|------------------------------------------|
                           D|------------------------------------------|
                           A|-4--44-7-x6-x5-x74--or--4--44-7-x6-x5-x24-|
                           E|------------------------------------------|

chorus:
G|----------------------------------------|
D|-----11-0-9-0---------------------------|x4
A|--------------11-0-10-0-9-0-7-0---------|
E|-9-0----------------------------7-0-7-9-|

pre-verse: (with variations)
G|--------------------------------|
D|--------------------------------|x3
A|-4--44-7-x6-x5-x4--44-7-x6-x5-x-|
E|--------------------------------|

G|------------------------------|
D|------------------------------|
A|-4--44-7-x6-x5-x4--44-7-x6-x5-|
E|------------------------------|

verse: (with variations)
G|--------------------------------|
D|--------------------------------|x4
A|-4--44-7-x6-x5-x4--44-7-x6-x5-x-|
E|--------------------------------|

chorus:
G|----------------------------------------|
D|-----11-0-9-0---------------------------|x4
A|--------------11-0-10-0-9-0-7-0---------|
E|-9-0----------------------------7-0-7-9-|

pre-verse: (with variations)
G|--------------------------------|
D|--------------------------------|x4
A|-4--44-7-x6-x5-x4--44-7-x6-x5-x-|
E|--------------------------------|

break:
G|-----------------------|
D|-----------------------|x4
A|-4--x44-----4--x44-----|
E|-----------------------|

outro:
G|-----------------|
D|-----------------|x2
A|-----------------|
E|-0-------0-------|

G|------------------|
D|---------5---/12--|x16
A|----5h77---7------|
E|-0----------------|

G|--------------|
D|--------------|
A|--------------|
E|-0-------12\--|

| /  slide up
| \  slide down
| h  hammer-on
| p  pull-off
| ~  vibrato
| +  harmonic
| x  Mute note
===============================================================================
            
Submit corrections



        Roll Right lessons Hard to play? Try these video lessons and learn fast Roll Right lessons
        
↑ Back to top | Tablatures and chords for acoustic guitar and electric guitar, ukulele, drums are parodies/interpretations of the original songs. You may use it for private study, scholarship, research or language learning purposes only