» » »

Rage Against The Machine - Maggie's Farm Bass

Artists:  A B C D E F G H I J K L M N O P Q R S T U V W X Y Z # 

Maggie's Farm Bass

(ver. 2) Click to play this song!
Rage Against The Machine
 Rating:
4/5 (4 votes)


 Maggie's Farm lessons Tabs too difficult? Try these video lessons and learn fast
 
                -------------------------------------------------------------------------------
			     MAGGIE'S FARM - Rage Against the Machine
-------------------------------------------------------------------------------


Tuning:Standard

riff:
0:10
G|------------------------------7-----|
D|----------------------------79-97---|x4
A|-----5------5--7------5----------75-|
E|-7-7--777--7-77---7-7--777----------|

verse:
0:32
G|----------------------------|
D|----------------------------|x8
A|-----5------5--7-------5----|
E|-7-7--777--7-77----7-7--777-|

pre-chorus:
1:16
G|------------------|   |-----------------|
D|------------------|x4 |-----------------|x4
A|------------------|   |-----5------5--7-|
E|-7-7-xx7-xx7-xxxx-|   |-7-7--777--7-77--|

chorus:
1:38
G|---------------------------------|------------------|
D|---------------------------------|------------------|x2
A|---------------------------------|------------------|
E|-5-5-5-5-5-5-5-5-0-0-0-0-0-0-0-0-|-7-7-xx7-xx7-xxxx-|

G|-----------------------------------------|
D|-----------------------------------------|
A|-----------------------------------------|
E|-5-5-5-5-5-5-5-5-0-0-0-0-0-0-0-0-7-------|

riff:
2:00
G|------------------------------7-----|
D|----------------------------79-97---|x2
A|-----5------5--7------5----------75-|
E|-7-7--777--7-77---7-7--777----------|

verse:
2:12
G|----------------------------|
D|----------------------------|x8
A|-----5------5--7-------5----|
E|-7-7--777--7-77----7-7--777-|

pre-chorus:
2:56
G|------------------|   |-----------------|
D|------------------|x4 |-----------------|x4
A|------------------|   |-----5------5--7-|
E|-7-7-xx7-xx7-xxxx-|   |-7-7--777--7-77--|

chorus:
3:18
G|---------------------------------|------------------|
D|---------------------------------|------------------|x2
A|---------------------------------|------------------|
E|-5-5-5-5-5-5-5-5-0-0-0-0-0-0-0-0-|-7-7-xx7-xx7-xxxx-|

G|-----------------------------------------|
D|-----------------------------------------|
A|-----------------------------------------|
E|-5-5-5-5-5-5-5-5-0-0-0-0-0-0-0-0-7-------|

break:
3:40
G|------------------|
D|------------------|x8
A|-----5---5---5----|
E|-7-77-777-777-777-|

long rest

pre-chorus:
4:26
G|---------------------------------|
D|---------------------------------|
A|---------------------------------|
E|-x12\-----x12\-----x12\-----x12\-|

chorus:
4:36
G|---------------------------------|------------------|
D|---------------------------------|------------------|x2
A|---------------------------------|------------------|
E|-5-5-5-5-5-5-5-5-0-0-0-0-0-0-0-0-|-7-7-xx7-xx7-xxxx-|

G|-----------------------------------------|
D|-----------------------------------------|
A|-----------------------------------------|
E|-5-5-5-5-5-5-5-5-0-0-0-0-0-0-0-0-7-------|

long rest

outro:
5:08
G|---7-----|-----------------------------7-----|
D|-79-97---|---------------------------79-97---|x2
A|------75-|-----5-----5--7------5----------75-|
E|---------|-7-7--777-7-77---7-7--777----------|

G|------------------------------7--------------------------------------|
D|----------------------------79-97------------------------------------|x5
A|-----5------5--7------5----------75-----5------5--7------5--------5--|
E|-7-7--777--7-77---7-7--777----------7-7--777--7-77---7-7--777--5-----|

G|------------------------------7-----|
D|----------------------------79-97---|
A|-----5------5--7------5----------75-|
E|-7-7--777--7-77---7-7--777----------|

| /  slide up
| \  slide down
| h  hammer-on
| p  pull-off
| ~  vibrato
| +  harmonic
| x  Mute note
===============================================================================
            
Submit corrections



        Maggie's Farm lessons Hard to play? Try these video lessons and learn fast Maggie's Farm lessons
        
↑ Back to top | Tablatures and chords for acoustic guitar and electric guitar, ukulele, drums are parodies/interpretations of the original songs. You may use it for private study, scholarship, research or language learning purposes only