» » »

Rage Against The Machine - Fistful Of Steel Bass

Artists:  A B C D E F G H I J K L M N O P Q R S T U V W X Y Z # 

Fistful Of Steel Bass

(ver. 3) Click to play this song!
Rage Against The Machine
 Rating:
4/5 (4 votes)


 Fistful Of Steel lessons Tabs too difficult? Try these video lessons and learn fast
 
                -------------------------------------------------------------------------------
			     fistful of steel- rage against the machine
-------------------------------------------------------------------------------


Tuning:normal
intro:wait for guitar bit and then come in with
G|---------------------------------------------------------------------------|
D|---------------------------------------------------------------------------|
A|---------------------------------------------------------------------------|
E|-0--2--2--0--2--2--14/-0--2--2--0--2--2--14/-0--2--2--0--2--2--14/---------|

G|---------------------------------------------------------------------------|
D|---------------------------------------------------------------------------|
A|---------------------------------------------------------------------------|
E|-0--2-2--0--2--2----2------------------------------------------------------|
verse:
G|---------------------------------------------------------------------------|
D|---------------------------------------------------------------------------|
A|---------------------------------------------------------------------------|
E|--2\14---5--7--8---2--2--2\14---5--7--8-----(x 6)--------------------------|

G|---------------------------------------------------------------------------|
D|---------------------------------------------------------------------------|
A|-----------------0--9--7---------------------------------------------------|
E|--2--2--2\14--------------9--8--7--5---------------------------------------|
chorus:
G|---------------------------------------------------------------------------|
D|---------------------------------------------------------------------------|
A|---------------------------------------------------------------------------|
E|-0--2--2--0--2--2--14/-0--2--2--0--2--2--14/-0--2--2--0--2--2--14/---------|

G|---------------------------------------------------------------------------|
D|---------------------------------------------------------------------------|
A|---------------------------------------------------------------------------|
E|-0--2--2--0--2--2-----2----------------------------------------------------|
verse: wait for a bit until u kick in
G|---------------------------------------------------------------------------|
D|---------------------------------------------------------------------------|
A|---------------------------------------------------------------------------|
E|--2\14---5--7--8---2--2--2\14---5--7--8-----(x 2)--------------------------|
chorus:
G|---------------------------------------------------------------------------|
D|---------------------------------------------------------------------------|
A|---------------------------------------------------------------------------|
E|-0--2--2--0--2--2--14/-0--2--2--0--2--2--14/-0--2--2--0--2--2--14/---------|
solo:
G|---------------------------------------------------------------------------|
D|---------------------------------------------------------------------------|
A|---------------------------------------------------------------------------|
E|-2-2-0-2--0-2--0-5--5-5-7h9---(x2)-----------------------------------------|
bridge:
G|---------------------------------------------------------------------------|
D|---------------------------------------------------------------------------|
A|----------------9-7--------------------------------------------------------|
E|-2-2-0--2--0-0------9-8--7--5---2------------------------------------------|

G|---------------------------------------------------------------------------|
D|---------------------------------------------------------------------------|
A|-------0-9-8-7-0-9-8-7-----------------------------------------------------|
E|-0-2-5-----------------0-----(x3)------------------------------------------|
-|
ending:wait for a few seconds then play this:
G|---------------------------------------------------------------------------|
D|---------------------------------------------------------------------------|
A|-------0-9-8-7-0-9-8-7---------------------4-------------------------------|
E|-0-2-5-----------------0-----(x9)------2---2-------------------------------|
| /  slide up
| \  slide down
| h  hammer-on
| p  pull-off
| ~  vibrato
| +  harmonic
| x  Mute note
            
Submit corrections



        Fistful Of Steel lessons Hard to play? Try these video lessons and learn fast Fistful Of Steel lessons
        
↑ Back to top | Tablatures and chords for acoustic guitar and electric guitar, ukulele, drums are parodies/interpretations of the original songs. You may use it for private study, scholarship, research or language learning purposes only