» » »

Rage Against The Machine - Calm Like A Bomb Bass

Artists:  A B C D E F G H I J K L M N O P Q R S T U V W X Y Z # 

Calm Like A Bomb Bass

(ver. 2) Click to play this song!
Rage Against The Machine
 Rating:
4/5 (4 votes)


 Calm Like A Bomb lessons Tabs too difficult? Try these video lessons and learn fast
 
                -------------------------------------------------------------------------------
			     CALM LIKE A BOMB - Rage Against the Machine
-------------------------------------------------------------------------------


Tuning:Standard

can people not look at this as a one star tab because some
idiot did that who clearly doesn't know the song so please rate
this differently

intro:
0:00
G|-----0-2------------0------------------------------------------|
D|-2-4------4-2-0-2-4----4-2-0-----0-2-4--2-0-------2------------|
A|-----------------------------4-0------------4-2-4----4-2-0-----|
E|-----------------------------------------------------------4-0-|

G|----------------------------0-2------------0------------|
D|----------2---0--4-0-2--2-4------4-2-0-2-4----4-2-0-----|
A|-2--4-2-4---4---------------------------------------4-0-|
E|--------------------------------------------------------|

verse:
0:14
G|------------------------|
D|----9-7-9--/12----------|x8
A|------------------------|
E|-7--------------x-x-x-x-|

riff:
0:40
G|------------------------|
D|----9-7-9--9-7-9--9-7-9-|x4
A|------------------------|
E|-7----------------------|

verse:
0:52
G|------------------------|
D|----9-7-9--/12----------|x8
A|------------------------|
E|-7--------------x-x-x-x-|

pre-chorus:
1:12
G|--------------------------------------------|
D|--------------------------------------------|x4
A|-02-x-x-x-x-x-x-x-x-x-x-x-x-x-x-0202-2-2-25-|
E|--------------------------------------------|

chorus:
1:38
G|---------------------------------------|
D|---------------------------------------|x2
A|-02-x-x-5-2-x-x-x-5-2-02-x-x-5-2-0-5-2-|
E|---------------------------------------|

verse:
1:50
G|------------------------|
D|----9-7-9--/12----------|x8
A|------------------------|
E|-7--------------x-x-x-x-|

riff:
2:02
G|------------------------|
D|----9-7-9--9-7-9--9-7-9-|x4
A|------------------------|
E|-7----------------------|

verse:
2:16
G|------------------------|
D|----9-7-9--/12----------|x8
A|------------------------|
E|-7--------------x-x-x-x-|

pre-chorus:
2:34
G|-11-11-11-11-|--------------------------------------------|
D|-------------|--------------------------------------------|x4
A|-------------|-02-x-x-x-x-x-x-x-x-x-x-x-x-x-x-0202-2-2-25-|
D|-------------|--------------------------------------------|

chorus:
3:00
G|---------------------------------------|
D|---------------------------------------|x4
A|-02-x-x-5-2-x-x-x-5-2-02-x-x-5-2-0-5-2-|
E|---------------------------------------|

break:
3:26
G|---------------------------------------------9-7-9---------------|
D|-----------------------------------------------------------------|x2
A|-7-x-x-7-x-x-7-x-x-7-x-x-5-5-5-5-7-x-x-7-x-x-------7-----5-5-5-5-|
E|-----------------------------------------------------------------|

verse:
3:40
G|------------------------|
D|----9-7-9--/12----------|x8
A|------------------------|
E|-7--------------x-x-x-x-|

chorus:
4:04
G|-----------------------------------------|
D|-----------------------------------------|x4
A|-02-x-x-5-2-x-x-x-5--2-02-x-x-5-2-0--5-2-|
E|-----------------------------------------|

| /  slide up
| \  slide down
| h  hammer-on
| p  pull-off
| ~  vibrato
| +  harmonic
| x  Mute note
===============================================================================
            
Submit corrections



        Calm Like A Bomb lessons Hard to play? Try these video lessons and learn fast Calm Like A Bomb lessons
        
↑ Back to top | Tablatures and chords for acoustic guitar and electric guitar, ukulele, drums are parodies/interpretations of the original songs. You may use it for private study, scholarship, research or language learning purposes only