» » »

Queens Of The Stone Age - Suture Up Your Future Bass

Artists:  A B C D E F G H I J K L M N O P Q R S T U V W X Y Z # 

Suture Up Your Future Bass

(ver. 2) Click to play this song!
Queens Of The Stone Age
 Rating:
4/5 (4 votes)


 Suture Up Your Future lessons Tabs too difficult? Try these video lessons and learn fast
 
                ----------------------------------------------------------------------------
		Suture Up Your Future - Queens of the Stone Age
----------------------------------------------------------------------------


Tuning: normal

Main Bass line:
G|----------|
D|-------9\-|
A|-----7----|
E|-5-8------|

PreChorus:
G|-----------------------------------------------|
D|-----------9-9-9--------9-9-9------------------|
A|-----------------------------------------------|
E|-10-10--10-------8-8--8--------5-8-0-3-5-8-0-3-|

Chorus:
G|---------------------------------------------------------|
D|-----------9-9-9--------9-9-9---------9-9-9--------9-9-9-|
A|---------------------------------------------------------|
E|-10-10--10-------8-8--8--------5-5--5-------5-5--5-------|
  ^Repeat 3x^

AfterChorus:
G|--------------------------------------------------------------|
D|-----------9-9-9--------9-9-9---------------------------------|
A|--------------------------------------------------------------|
E|-10-10--10-------8-8--8--------5-8-0-3-5-8-0-3-5-8-0-3-5-8-0-3|

Main Bass line:
G|----------|
D|-------9\-|
A|-----7----|
E|-5-8------|

Play until after"I'd sharpened a knife,then used it,until bone made itdull"
then switch to:
G|---------------------------------|
D|---------------------------------|
A|---------------------------------|
E|-5-8-0-3-5-8-0-3-5-8-0-3-5-8-0-3-|

Then switch back to the main bass line:
G|----------|
D|-------9\-|
A|-----7----|
E|-5-8------|

Chorus(skip prechorus this time):
G|---------------------------------------------------------|
D|-----------9-9-9--------9-9-9---------9-9-9--------9-9-9-|
A|---------------------------------------------------------|
E|-10-10--10-------8-8--8--------5-5--5-------5-5--5-------|
  ^Repeat 4x^

Bridge:
G|-------------------------|
D|-------------------------|
A|-3-333-------------------|
E|-------3-333-5-555-5-555-|
  ^Repeat 3x^

then transition| to the finishing part...
G|-------------|----------|
D|-------------|----------|then repeat the 5 5 combo about 50 times
A|-3-333-------|----------|until the bass and guitars fade
E|-------3-333-|-5-5--5-5-|
  ^transition^ | ^finish^

bound to be a mistake somewhere.
            
Submit corrections



        Suture Up Your Future lessons Hard to play? Try these video lessons and learn fast Suture Up Your Future lessons
        
↑ Back to top | Tablatures and chords for acoustic guitar and electric guitar, ukulele, drums are parodies/interpretations of the original songs. You may use it for private study, scholarship, research or language learning purposes only