» » »

Queens Of The Stone Age - Suture Up Your Future Bass

Artists:  A B C D E F G H I J K L M N O P Q R S T U V W X Y Z # 

Suture Up Your Future Bass

(ver. 1) Click to play this song!
Queens Of The Stone Age
 Rating:
4/5 (4 votes)


 Suture Up Your Future lessons Tabs too difficult? Try these video lessons and learn fast
 
                G|-----------------|
D|------------10\--|
A|----xh6--9-------|
E|/8---------------|Main riff
00:11 - 01:03
01:45 - 02:13
02:21 - 02:42

1st Chorus:
G|--------------------------------------------------------|
D|----------12\---------10\-------------------------------|
A|--------------------------------10\---7-7-----10\---7\--|
E|10--10-10------8--8-8------10-10----8----10-10----8-----|

G|--------------------------------------------------------------------|
D|----------12\---------10\------------12--12-12----------------------|
A|-------------------------------------------------------10-10/(15)\--|x3
E|10--10-10------8--8-8------10--10-10------------8--8-8--------------|
01:03 - 01:03:36

Change in main riff:
G|----------------|
D|----------------|
A|------10\---7\--|
E|/10-10----8-----|
01:36 - 01:44
02:14 - 02:20

Chorus:
G|--------------------------------------------------------------------|
D|----------12\---------10\------------12--12-12----------------------|
A|-------------------------------------------------------10-10/(15)\--|
E|10--10-10------8--8-8------10--10-10------------8--8-8--------------|
02:43 - 03:13

Bridge:
G|----------------------------------------------|
D|----------------------------------------------|
A|-------10-1010-10-12-1212-12-10h1212-10h1212--|x3
E|8-88-8----------------------------------------|

G|-------------------|
D|-------------------|
A|-------10-1010-10--|
E|8-88-8-------------|

G|--------|   |---------|
D|--------|   |----7p5--|
A|12-12\--|x8 |5-5\-----|(play till it's faded out)
E|12-12\--|   |5-5\-----|
            
Submit corrections



        Suture Up Your Future lessons Hard to play? Try these video lessons and learn fast Suture Up Your Future lessons
        
↑ Back to top | Tablatures and chords for acoustic guitar and electric guitar, ukulele, drums are parodies/interpretations of the original songs. You may use it for private study, scholarship, research or language learning purposes only