» » »

Queens Of The Stone Age - Sick Sick Sick Bass

Artists:  A B C D E F G H I J K L M N O P Q R S T U V W X Y Z # 

Sick Sick Sick Bass

(ver. 3) Click to play this song!
Queens Of The Stone Age
 Rating:
4/5 (4 votes)


 Sick Sick Sick lessons Tabs too difficult? Try these video lessons and learn fast
 
                -------------------------------------------------------------------------------
			     Sick Sick Sick - Queens of The Stone Age
-------------------------------------------------------------------------------


Tuning: Standard (surprising, because the guitar is done in C tuning (2 steps down)
Verses and intro(bass enters 17 seconds in)
G|--------------------------------------------------------------------------|
D|--------------------------------------------------------------------------|
A|-33-6-333-6-33-6-333-6-333-6~-6-------------------------------------------|
E|--------------------------------------------------------------------------|
repeat as neccesary, it is played very fast so i lost count on how many repeats it had

Choruses
G|--------------------------------------------------------------------------|
D|--------------------------------------------------------------------------|
A|----3---3-----3---0-3------6------6---------------------------------------|
E|--------------------------------------------------------------------------|
    sick sick sick         don't resist

post chorus
G|--------------------------------------------------------------------------|
D|--------------------------------------------------------------------------|
A|--------------------------------------------------------------------------|
E|---646464646464slide-up86868686868----------------------------------------|
probably wrong but at least i tried

part where Julian (from the Strokes) sings
G|--------------------------------------------------------------------------|
D|--------------------------------------------------------------------------|
A|----7----7----------------------------------------------------------------|
E|--00-00-0-----------------------------------------------------------------|
repeat as neccesary
 
thi tab is pretty simple but i think its pretty much correct
===============================================================================
            
Submit corrections



        Sick Sick Sick lessons Hard to play? Try these video lessons and learn fast Sick Sick Sick lessons
        
↑ Back to top | Tablatures and chords for acoustic guitar and electric guitar, ukulele, drums are parodies/interpretations of the original songs. You may use it for private study, scholarship, research or language learning purposes only