» » »

Queens Of The Stone Age - Sick Sick Sick Bass

Artists:  A B C D E F G H I J K L M N O P Q R S T U V W X Y Z # 

Sick Sick Sick Bass

(ver. 1) Click to play this song!
Queens Of The Stone Age
 Rating:
4/5 (4 votes)


 Sick Sick Sick lessons Tabs too difficult? Try these video lessons and learn fast
 
                Submitted By : Punk_Rocker666
Band : Queens Of A Stone Age
Song : Sick Sick Sick


Intro Starts At : 25 Seconds


G|--------------------------------------------------------------------------|
D|--------------------------------------------------------------------------|
A|---------7-----7---7-7---7---7-----7---7-----7--7----7--7-----------------|
E|------------0----0-----0--------0---------0--------0-------0--------------|


G|--------------------------------------------------------------------------|
D|--------------------------------------------------------------------------|
A|--7-7-7----7-7-7----7-7---7-----7----7-7-7-----7-7-7----7-7----7----7-----|
E|--------0--------0------0----0-------------0---------0------0-----0-------|


G|--------------------------------------------------------------------------|
D|--------------------------------------------------------------------------|
A|--7---7---7-7----7---7-----7---7---7-7---7--7---7-7-7---7-7-7-------------|
E|----0---0-----0--------0-----0---0-----0------0-------0-------0-----------|


G|--------------------------------------------------------------------------|
D|--------------------------------------------------------------------------|
A|--7-7---7---7---7---7---7-7---7---7----7-7-7---7-7-7---7-7---7---7--------|
E|------0---0-------0---0-----0--------0-------0-------0-----0---0----------|


G|--------------------------------------------------------------------------|
D|--------------------------------------------------------------------------|
A|--7-7-7---7-7-7---7-7---7---7---7-----7-----7----7-7----7--7--------------|
E|--------0-------0-----0---0--------0-----0-----0------0------0------------|


G|--------------------------------------------------------------------------|
D|--------------------------------------------------------------------------|
A|--7-7-7---7-7-7---7-7---7---7----7-7-7---7-7-7---7-7---7---7--------------|
E|--------0-------0-----0---0------------0-------0-----0---0----------------|


G|--------------------------------------------------------------------------|
D|--------------------------------------------------------------------------|
A|------------7-5-7-9---9-7-5----------------7-5-7-9---9-7-5----------------|
E|-----0--0-----------------------------0--0--------------------------------|


G|--------------------------------------------------------------------------|
D|--------------------------------------------------------------------------|
A|--5-0-5-0-7-0-7-5-7-----5-9-0-9-7-0---7----7----7--7---7--7---------------|
E|---------------------7-------------------0----0------0------0-------------|


G|--------------------------------------------------------------------------|
D|--------------------------------------------------------------------------|
A|--7-----7-----7-7----7---7----7-7-7---7-7-7----7-----7---7-7-7---7-7-7----|
E|-----0-----0------0--------0--------0-------0-----0------------0-------0--|


G|--------------------------------------------------------------------------|
D|--------------------------------------------------------------------------|
A|--7-7--7---7--7---7---7-7---7---7---7---7-7---7--7---7-7-7---7-7-7---7-7--|
E|-----0---0------0---0-----0-------0---0-----0------0-------0-------0------|


G|--------------------------------------------------------------------------|
D|--------------------------------------------------------------------------|
A|--7-7---7---7--7-7-7---7-7-7---7-7---7---7----------7-5-7-9--9-7-5--------|
E|--0-----0---0----------0-------0-----0---0----0---0-----------------------|


G|--------------------------------------------------------------------------|
D|--------------------------------------------------------------------------|
A|-------------------------7-5-7-9--9-7-5-----------------------------------|
E|--------------------0--0--------------------------------------------------|


G|--------------------------------------------------------------------------|
D|--------------------------------------------------------------------------|
A|--7-5-7-9--9-7-5---7-5-7-9--9-7-5---5-0-5-0-7-0-7-5-7---5-9-0-9-7-0-------|
E|--0--0------------------0--0-------------------------------------7--------|


G|--------------------------------------------------------------------------|
D|--------------------------------------------------------------------------|
A|--7-0-7-0-7-0-7-0-7-0-7-0-7-0-7-0---7-0-7-0-7-0-7-0-7-0-7-0-7-0-7-0-------|
E|--------------------------------------------------------------------------|


G|--------------------------------------------------------------------------|
D|--------------------------------------------------------------------------|
A|--7-0-7-0-7-0-7-0-7-0-7-0-7-0-7-0---7-0-7-0-7-0-7-0-7-0-7-0-7-0-7-0-------|
E|--------------------------------------------------------------------------|


G|--------------------------------------------------------------------------|
D|--------------------------------------------------------------------------|
A|-------------------7-5-7-9--9-7-5-------------7-5-7-9--9-7-5--------------|
E|-------------0--0------------------------0--0-----------------------------|


If You Have Any Questions Or Comments About This Tab Email Me At 
And Put The Subject As Sick Sick Sick
            
Submit corrections



        Sick Sick Sick lessons Hard to play? Try these video lessons and learn fast Sick Sick Sick lessons
        
↑ Back to top | Tablatures and chords for acoustic guitar and electric guitar, ukulele, drums are parodies/interpretations of the original songs. You may use it for private study, scholarship, research or language learning purposes only