» » »

Queens Of The Stone Age - Into The Hollow Bass

Artists:  A B C D E F G H I J K L M N O P Q R S T U V W X Y Z # 

Into The Hollow Bass

(ver. 1) Click to play this song!
Queens Of The Stone Age
 Rating:
4/5 (4 votes)


 Into The Hollow lessons Tabs too difficult? Try these video lessons and learn fast
 
                This tab is from bad quality version of 5:15 ers gig, so tab in finally version can be wrong, sorry...

G|----------------------------------------------------------------|
D|----------------------------------------------------------------|
A|---------------------1---------------------------1--------------|
E|-3---3---1-3-1-3-----------3---3---1-3-1-3----------------------|

Repeat and repeat, and repeat... Sometimes it's changes to:

G|----------------------------------------------------------------|
D|--------------------------------------1-------------------------|
A|---------------------1------------------3-1---------------------|
E|-3---3---1-3-1-3-----------3---3---1-------1--------------------|
            
Submit corrections



        Into The Hollow lessons Hard to play? Try these video lessons and learn fast Into The Hollow lessons
        
↑ Back to top | Tablatures and chords for acoustic guitar and electric guitar, ukulele, drums are parodies/interpretations of the original songs. You may use it for private study, scholarship, research or language learning purposes only