» » »

Queens Of The Stone Age - Give The Mule What He Wants Bass

Artists:  A B C D E F G H I J K L M N O P Q R S T U V W X Y Z # 

Give The Mule What He Wants Bass

(ver. 1) Click to play this song!
Queens Of The Stone Age
 Rating:
4/5 (4 votes)


 Give The Mule What He Wants lessons Tabs too difficult? Try these video lessons and learn fast
 
                My very 1st tab:D I hope its easy enough for yall to understand, if not plzzzzz let me know!

G|------------------------------------------------------|
D|--------------------75--------------------------------|
A|3--3-3-7-10-70-00-0-0----7375----3--3-3-757-----------|
E|-------------------------------------------5-555-55\0-|

G|-------------------|-------------------|------------------------------|
D|----------------9-7|----------------9-7|--------------------75--------|
A|3--3-2320-0-0-0----|3--3-2320-0-0-0----|3--3-3-7-10-70-00-0-0----7375-|
E|-------------------|-------------------|------------------------------|

     ------------------------|
     ------------------------|
     ---3--3-3-757-----------|
     -------------5-555-55\0-|

G|-------------------------------| |--------------------------|(x12-|
D|-------------------------------| |--------------------------------|
A|3-30-0-03-30-0-03-30-0-03-30-0-| |--3-5/7-0-0-----3-5/7-0-0-------|(Most Boring
E|-------------------------------| |3/5-----------3/5---------------| Part!)



G|---------------------------------------------------------------|
D|----------------9-7----------------9-7-------------------------|
A|3--3-2320-0-0-0-----3--3-2320-0-0-0----3--3-3-7-10-70-00-0-0---|
E|---------------------------------------------------------------|

    ----------------------------------------------------------------------|
    ----------------------------------------------------------------------|
    --3--3-3-7570-00-0-00---3--3-3-7-10-70-00-0-0---3--3-3-7-10-70-00-0-0-|
    ----------------------------------------------------------------------|

G|-------------------------------||------------|---------|----------|
D|-------------------------------||------------|---------|----------|
A|3-30-0-03-30-0-03-30-0-03-30-0-||--3-5/7-00--|--3----3-|--3-5/7-00|
E|-------------------------------||3/5---------|3/5--3/5-|3/5-------|
            
Submit corrections



        Give The Mule What He Wants lessons Hard to play? Try these video lessons and learn fast Give The Mule What He Wants lessons
        
↑ Back to top | Tablatures and chords for acoustic guitar and electric guitar, ukulele, drums are parodies/interpretations of the original songs. You may use it for private study, scholarship, research or language learning purposes only