» » »

Queens Of The Stone Age - Everybody Knows That You Are Insane Bass

Artists:  A B C D E F G H I J K L M N O P Q R S T U V W X Y Z # 

Everybody Knows That You Are Insane Bass

(ver. 2) Click to play this song!
Queens Of The Stone Age
 Rating:
4/5 (4 votes)


 Everybody Knows That You Are Insane lessons Tabs too difficult? Try these video lessons and learn fast
 
                Band- Queens Of The Stone Age
Song- Everybody Knows That You Are Insane

G ||-----------------|-----------------|-----------------|-----------------|
D ||-----------------|-----------------|-----------------|-----------------|
A ||-----------------|-----------------|-----------------|-----------------|
E ||-----------------|--6----6--6----6-|--5----5--5----5-|--2----2--2----2-|
B ||-----------------|-----------------|-----------------|-----------------|


                                                                             
-----------------|-------------------|-----------------|----------------|
-----------------|-------------------|-----------------|---------4------|
-----------------|--1----1--1/3-0--1-|--3----3--3----3-|----------------|
-----------------|-------------------|-----------------|--2----2--------|
--4----4--4----4-|-------------------|-----------------|----------------|


                                                                            
-----------------|-----------------|-----------------|-----------------|
-----------------|-----------------|-----------------|-----------------|
-----------------|-----------------|-----------------|-----------------|
--2----2--2----2-|--6----6--6----6-|--5----5--5----5-|--2----2--2----2-|
-----------------|-----------------|-----------------|-----------------|


                                                                             
-----------------|-------------------|----------5----0-|----------------|
-----------------|-------------------|-----------------|--4-------------|
-----------------|--1----1--1/3-0--1-|--3----3---------|---------4----4-|
-----------------|-------------------|-----------------|----------------|
--4----4--4----4-|-------------------|-----------------|----------------|


                                                                            
-----------------|-----------------|-----------------|-----------------|
-----------------|-----------------|-----------------|-----------------|
-----------------|-----------------|-----------------|-----------------|
--2----2--2----2-|--6----6--6----6-|--5----5--5----5-|--2----2--2----2-|
-----------------|-----------------|-----------------|-----------------|


                                                                              
-----------------|-------------------|-----------------|-----------------|
-----------------|-------------------|-----------------|----------4----4-|
-----------------|--1----1--1/3-0--1-|--1b---3--3----3-|-----------------|
-----------------|-------------------|-----------------|--2----2---------|
--4----4--4----4-|-------------------|-----------------|-----------------|


                                                                            
-----------------|-----------------|-----------------|-----------------|
-----------------|-----------------|-----------------|-----------------|
-----------------|-----------------|-----------------|-----------------|
--2----2--2----2-|--6----6--6----6-|--5----5--5----5-|--2----2--2----2-|
-----------------|-----------------|-----------------|-----------------|


                                                           
-----------------|-------------------|---------------1-|
-----------------|-------------------|-----------------|
-----------------|--1----1--1/3-0--1-|--1b---3--3------|
-----------------|-------------------|-----------------|
--4----4--4----4-|-------------------|-----------------|


                                                                             
---------------------|-----------------|----------------------------------|
--4--4-4-4-----------|-----------------|----------------------------------|
------------4--4-4-4-|-----------------|--1-1-1-1-1-1-1-1-1-1-1-1-1-1-1-1-|
---------------------|--2----2--2----2-|----------------------------------|
---------------------|-----------------|----------------------------------|


                                                                  
----------------------------------|------------------------------|
----------------------------------|------------------------------|
--0-0-0-0-0-0-0-0-----------------|------------------------------|
------------------2-2-2-2-2-2-2-2-|------------6-------------6---|
----------------------------------|--4-4-4-4-4-----4-4-4-4-4-----|


                                                                 
-----------------------------|----------------------------------|
-----------------------------|----------------------------------|
-----------------------------|--1-1-1-1-1-1-1-1-1-1-1-1-1-1-1-1-|
------------6----------------|----------------------------------|
--4-4-4-4-4-----4-4-4-4-4----|----------------------------------|


                                                                  
----------------------------------|------------------------------|
----------------------------------|------------------------------|
--0-0-0-0-0-0-0-0-----------------|------------------------------|
------------------2-2-2-2-2-2-2-2-|------------6-------------6---|
----------------------------------|--4-4-4-4-4-----4-4-4-4-4-----|


                                                             
-----------------------------|------------------------------|
-----------------------------|------------------------------|
-----------------------------|--1-1--1-1-1--1-1-1--1-1-1--0-|
------------6----------------|------------------------------|
--4-4-4-4-4-----4-4-4-4-4----|------------------------------|


                                                                  
------------------------------|----------------------------------|
------------------------------|----------------------------------|
--0-0--0-0-0--0-0-0--0-0-0--0-|----------------------------------|
------------------------------|--2-2-2-2-2-2-2-2-2-2-2-2-2-2-2-2-|
------------------------------|----------------------------------|


                                                                 
---------------------------------|------------------------------|
---------------------------------|------------------------------|
---------------------------------|--1-1--1-1-1--1-1-1--1-1-1--3-|
----------------------------6----|------------------------------|
--4-4-4-4-4-4-4-4-4-4-4-4-4----4-|------------------------------|


                                                                  
------------------------------|----------------------------------|
------------------------------|----------------------------------|
--3-3--3-3-3--3-3-3--3-3-3--3-|----------------------------------|
------------------------------|--2-2-2-2-2-2-2-2-2-2-2-2-2-2-2-2-|
------------------------------|----------------------------------|


                                                                  
----------------------------------|------------------------------|
----------------------------------|------------------------------|
----------------------------------|--1-1--1-1-1--1-1-1--1-1-1--0-|
--2-2-2-2-2-2-2-2-2-2-2-2-2-2-2-2-|------------------------------|
----------------------------------|------------------------------|


                                                                  
------------------------------|----------------------------------|
------------------------------|----------------------------------|
--0-0--0-0-0--0-0-0--0-0-0--0-|----------------------------------|
------------------------------|--2-2-2-2-2-2-2-2-2-2-2-2-2-2-2-2-|
------------------------------|----------------------------------|


                                                                  
----------------------------------|------------------------------|
----------------------------------|------------------------------|
----------------------------------|--1-1--1-1-1--1-1-1--1-1-1--3-|
--0-0-0-0-0-0-0-0-0-0-0-0-0-0-0-0-|------------------------------|
--4-4-4-4-4-4-4-4-4-4-4-4-4-4-4-4-|------------------------------|


                                                                  
------------------------------|----------------------------------|
------------------------------|----------------------------------|
--3-3--3-3-3--3-3-3--3-3-3--3-|----------------------------------|
------------------------------|--2-2-2-2-2-2-2-2-2-2-2-2-2-2-2-2-|
------------------------------|----------------------------------|


                                                                 
-----------------------------|----------------------------------|
-----------------------------|----------------------------------|
-----------------------------|--1-1-1-1-1-1-1-1-1-1-1-1-1-1-1-1-|
------------6----------------|----------------------------------|
--4-4-4-4-4-----4-4-4-4-4----|----------------------------------|



                                                                  
----------------------------------|------------------------------|
----------------------------------|------------------------------|
--0-0-0-0-0-0-0-0-----------------|------------------------------|
------------------2-2-2-2-2-2-2-2-|------------6-------------6---|
----------------------------------|--4-4-4-4-4-----4-4-4-4-4-----|


                                                                 
-----------------------------|----------------------------------|
-----------------------------|----------------------------------|
-----------------------------|--1-1-1-1-1-1-1-1-1-1-1-1-1-1-1-1-|
------------6----------------|----------------------------------|
--4-4-4-4-4-----4-4-4-4-4----|----------------------------------|


                                                                  
----------------------------------|------------------------------|
----------------------------------|------------------------------|
--0-0-0-0-0-0-0-0-----------------|------------------------------|
------------------2-2-2-2-2-2-2-2-|------------6-------------6---|
----------------------------------|--4-4-4-4-4-----4-4-4-4-4-----|


                                                                 
-----------------------------|----------------------------------|
-----------------------------|----------------------------------|
-----------------------------|--1-1-1-1-1-1-1-1-1-1-1-1-1-1-1-1-|
------------6----------------|----------------------------------|
--4-4-4-4-4-----4-4-4-4-4----|----------------------------------|


                                                                  
----------------------------------|------------------------------|
----------------------------------|------------------------------|
--0-0-0-0-0-0-0-0-----------------|------------------------------|
------------------2-2-2-2-2-2-2-2-|------------6-------------6---|
----------------------------------|--4-4-4-4-4-----4-4-4-4-4-----|


                                                                 
-----------------------------|----------------------------------|
-----------------------------|----------------------------------|
-----------------------------|--1-1-1-1-1-1-1-1-1-1-1-1-1-1-1-1-|
------------6----------------|----------------------------------|
--4-4-4-4-4-----4-4-4-4-4----|----------------------------------|


                                                                  
----------------------------------|------------------------------|
----------------------------------|------------------------------|
--3-3-3-3-3-3-3-3-----------------|------------------------------|
------------------2-2-2-2-2-2-2-2-|------------6-------------6---|
----------------------------------|--4-4-4-4-4-----4-4-4-4-4-----|




                                                                            
-----------------------------|----------------------|----------------------|
-----------------------------|----------------------|----------------------|
-----------------------------|----------------------|--1-1--1-1------------|
------------6----------------|--2-2--2-2--2-2--2-2--|------------4-4--4-4--|
--4-4-4-4-4-----4-4-4-4-4----|----------------------|----------------------|


                                                                     
----------------------|----------------------|----------------------|
----------------------|----------------------|----------------------|
----------------------|--1-1--1-1------------|----------------------|
--2-2--2-2--2-2--2-2--|------------4-4--4-4--|--2-2--2-2--2-2--2-2--|
----------------------|----------------------|----------------------|


                                                          
----------------------|----------------------------------|
----------------------|----------------------------------|
--1-1--1-1------------|----------------------------------|
------------4-4--4-4--|--2-2-2-2-2-2-2-2-2-2-2-2-2-2-2-2-|
----------------------|----------------------------------|


                                                                      
----------------------------------|----------------------------------|
----------------------------------|----------------------------------|
--1-1-1-1-1-1-1-1-----------------|----------------------------------|
------------------4-4-4-4-4-4-4-4-|--2-2-2-2-2-2-2-2-2-2-2-2-2-2-2-2-|
----------------------------------|----------------------------------|


                                                                      
----------------------------------|----------------------------------|
----------------------------------|----------------------------------|
--1-1-1-1-1-1-1-1-----------------|----------------------------------|
------------------4-4-4-4-4-4-4-4-|--2-2-2-2-2-2-2-2-2-2-2-2-2-2-2-2-|
----------------------------------|----------------------------------|


                                                                      
----------------------------------|----------------------------------|
----------------------------------|----------------------------------|
--1-1-1-1-1-1-1-1-----------------|----------------------------------|
------------------4-4-4-4-4-4-4-4-|--2-2-2-2-2-2-2-2-2-2-2-2-2-2-2-2-|
----------------------------------|----------------------------------|


                                                                 
-----------------------------|----------------------------------|
-----------------------------|----------------------------------|
-----------------------------|--1-1-1-1-1-1-1-1-1-1-1-1-1-1-1-1-|
------------6----------------|----------------------------------|
--4-4-4-4-4-----4-4-4-4-4----|----------------------------------|



                                                                  
----------------------------------|------------------------------|
----------------------------------|------------------------------|
--0-0-0-0-0-0-0-0-----------------|------------------------------|
------------------2-2-2-2-2-2-2-2-|------------6-------------6---|
----------------------------------|--4-4-4-4-4-----4-4-4-4-4-----|


                                                                 
-----------------------------|----------------------------------|
-----------------------------|----------------------------------|
-----------------------------|--1-1-1-1-1-1-1-1-1-1-1-1-1-1-1-1-|
------------6----------------|----------------------------------|
--4-4-4-4-4-----4-4-4-4-4----|----------------------------------|

                                                                  
----------------------------------|------------------------------|
----------------------------------|------------------------------|
--0-0-0-0-0-0-0-0-----------------|------------------------------|
------------------2-2-2-2-2-2-2-2-|------------6-------------6---|
----------------------------------|--4-4-4-4-4-----4-4-4-4-4-----|

                                                                 
-----------------------------|----------------------------------|
-----------------------------|----------------------------------|
-----------------------------|--1-1-1-1-1-1-1-1-1-1-1-1-1-1-1-1-|
------------6----------------|----------------------------------|
--4-4-4-4-4-----4-4-4-4-4----|----------------------------------|


                                                                  
----------------------------------|------------------------------|
----------------------------------|------------------------------|
--0-0-0-0-0-0-0-0-----------------|------------------------------|
------------------2-2-2-2-2-2-2-2-|------------6-------------6---|
----------------------------------|--4-4-4-4-4-----4-4-4-4-4-----|


                                                                 
-----------------------------|----------------------------------|
-----------------------------|----------------------------------|
-----------------------------|--1-1-1-1-1-1-1-1-1-1-1-1-1-1-1-1-|
------------6----------------|----------------------------------|
--4-4-4-4-4-----4-4-4-4-4----|----------------------------------|


                                                                  
----------------------------------|------------------------------|
----------------------------------|------------------------------|
--0-0-0-0-0-0-0-0-----------------|------------------------------|
------------------2-2-2-2-2-2-2-2-|------------6-------------6---|
----------------------------------|--4-4-4-4-4-----4-4-4-4-4-----|


                             
-----------------------------||
-----------------------------||
-----------------------------||
------------6----------------||
--4-4-4-4-4-----4-4-4-4-4----||
            
Submit corrections



        Everybody Knows That You Are Insane lessons Hard to play? Try these video lessons and learn fast Everybody Knows That You Are Insane lessons
        
↑ Back to top | Tablatures and chords for acoustic guitar and electric guitar, ukulele, drums are parodies/interpretations of the original songs. You may use it for private study, scholarship, research or language learning purposes only