» » »

Project 86 - Sanctuary Hum Bass

Artists:  A B C D E F G H I J K L M N O P Q R S T U V W X Y Z # 

Sanctuary Hum Bass

(ver. 1) Click to play this song!
Project 86
 Rating:
4/5 (4 votes)


 Sanctuary Hum lessons Tabs too difficult? Try these video lessons and learn fast
 
                -------------------------------------------------------------------------------
			     Sanctuary Hum - Project 86
-------------------------------------------------------------------------------


Tuning:DADG

| /  slide up
| \  slide down
| h  hammer-on
| p  pull-off
| ~  Let note ring out
| +  harmonic
| x  Mute note

ORDER:
Intro (x4)
Verse (x3 i think)
Chorus (x2)
Intro (x2)
Verse (x3)
Chorus (x2)
Bridge (x1)
Bridge pt.2 (x1)
Intro (x2)
Chorus (x6)


Intro (dont play until the D(5) on the A string the first time)
G|---------------------------------------------------------------------------|
D|---------------------------------------------------------------------------|
A|-----------------77-77-5h7-77-77-55-55--5h3-33-2-0-------------------------|
D|-22-22-33-33-5-7----------------------------------22-22-0h2-22-2-2---------|

Verse ( the 7 is pushed)
G|---------------------------------------------------------------------------|
D|---------------------------------------------------------------------------|
A|---------------------------------------------------------------------------|
D|-2~-------10~----7~--------------------------------------------------------|

Chorus
G|---------------------------------------------------------------------------|
D|---------------------------------------------------------------------------|
A|---------------------------------------------------------------------------|
D|-2222-2-2222-2-5555-5-5555-5-7777-7-7777-7-3333-3-3333-3-------------------|

Bridge
G|---------------------------------------------------------------------------|
D|---------------------------------------------------------------------------|
A|----6-5-4-3-2-0---6-5-4-3-2-0----6-5-4-3-2-0----6-5-4-3-2-0----------------|
D|-2~-------------2~------------2~-------------2~----------------------------|

Bridge pt.2
G|---------------------------------------------------------------------------|
D|---------------------------------------------------------------------------|
A|----6-5-4-3-2-0-6-5-4-3-2-0------------------------------------------------|
D|-2~------------------------------------------------------------------------|

END.
===============================================================================
            
Submit corrections



        Sanctuary Hum lessons Hard to play? Try these video lessons and learn fast Sanctuary Hum lessons
        
↑ Back to top | Tablatures and chords for acoustic guitar and electric guitar, ukulele, drums are parodies/interpretations of the original songs. You may use it for private study, scholarship, research or language learning purposes only