» » »

Prodigy - Warriors Dance Bass

Artists:  A B C D E F G H I J K L M N O P Q R S T U V W X Y Z # 

Warriors Dance Bass

(ver. 1) Click to play this song!
Prodigy
 Rating:
4/5 (4 votes)


 Warriors Dance lessons Tabs too difficult? Try these video lessons and learn fast
 
                

PRODIGY - WARRIOR'S DANCE 

While the womans singing

G|---------|---------|---------|---------|
D|---------|---------|---------|---------| 
A|---------|---------|---------|---------|
D|-3-3-3-3-|-3-3-3-3-|-6-6-6-6-|-6-6-6-6-|


G|---------|---------|---------|---------|
D|---------|---------|---------|---------| 
A|---------|---------|---------|---------|
D|-1-1-1-1-|-1-1-1-1-|-8-8-8-8-|-8-8-8-8-|

repeat as many times as needed
_____________________________________________

Ater the woman sings - Main Riff

G|---------|---------|---------|---------|
D|---------|---------|---------|---------| 
A|---------|--8\-8-8~|---------|--8\-8-8~|
D|-3-9-8-6-|3---3----|-3-9-8-6-|3---3----|

Repeat this as many times as needed
Sometimes has a variation (below)


G|---------|---------|
D|---------|---------|
A|---------|---------|
D|-3-99-8-6|---------|

_____________________________________________


When the woman sings second time


G|---------|---------|---------|---------|
D|---------|---------|---------|---------| 
A|---------|---------|---------|---------|   
D|-3-3-----|-6-6-----|-1-1-----|-8-8-----|

as many times as needed

_____________________________________________

Break bit

G|---------|---------|---------|---------|
D|---------|---------|---------|---------| 
A|---------|---------|---------|---------|   
D|-3-3-----|-3-3-----|-3-3-----|-3-3-----|

as many times as needed

woman starts to sing again...

G|---------|---------|---------|---------|
D|---------|---------|---------|---------| 
A|---------|---------|---------|---------|
D|-3-3-3-3-|-3-3-3-3-|-6-6-6-6-|-6-6-6-6-|


G|---------|---------|---------|---------|
D|---------|---------|---------|---------| 
A|---------|---------|---------|---------|
D|-1-1-1-1-|-1-1-1-1-|-8-8-8-8-|-8-8-8-8-|

as many times as needed

_____________________________________________

Use main riff again

then at the end it finishes with

G|---------|---------|---------|---------|
D|---------|---------|---------|---------| 
A|---------|---------|---------|---------|   
D|-3-3-----|-3-3-----|-3-3-----|-3-3-----|

sounds different though cant work it out but this is close enough...

___________________________________________________________________________
            
Submit corrections



        Warriors Dance lessons Hard to play? Try these video lessons and learn fast Warriors Dance lessons
        
↑ Back to top | Tablatures and chords for acoustic guitar and electric guitar, ukulele, drums are parodies/interpretations of the original songs. You may use it for private study, scholarship, research or language learning purposes only