» » »

Primus - Tragedys A Comin Bass

Artists:  A B C D E F G H I J K L M N O P Q R S T U V W X Y Z # 

Tragedys A Comin Bass

(ver. 2) Click to play this song!
Primus
 Rating:
4/5 (4 votes)


 Tragedys A Comin lessons Tabs too difficult? Try these video lessons and learn fast
 
                -------------------------------------------------------------------------------
			    Tragedy's A' Comin' - Primus
-------------------------------------------------------------------------------


Ridiculous amount of variations, but I think it goes basically like this:

Intro:

strummed

G|-11-11-11-11-11-11-11-11-11/9\11 12-12-11-11-10-10-------------------------------|
D|-9--9--9--9--9--9--9--9--9--7-9--10-10-9--9--8--8--------------------------------|
A|---------------------------------------------------------------------------------|
E|---------------------------------------------------------------------------------|

Slapped, D-string popped

G|---------------------------------------------------------------------------------|
D|-----------------5h7-------------------------------------------------------------|
A|---------3-5-5-5-----------------------------------------------------------------|
E|-0-0-4-5-------------------------------------------------------------------------|

Chorus & Verse:

E, A & D -strings slapped, G popped

G|-------------------------------------------------12------------------------------|
D|-14-12-------------------------------------12h14----14---------------------------|
A|-------14-12-10-10-10-12---------------------------------------------------------|
E|-------------------------10-11-12-12-12-12---------------------------------------|

G|----------------------------------------------12---------------------------------|
D|-14-12----------------------------------12h14----14------------------------------|
A|-------14-12-10-10h12------------------------------------------------------------|
E|----------------------10-10h12-12-12-12------------------------------------------|

G|-------------------12----------------------------------------------12----14p12---|
D|-------------12h14----14-14-12-------------------------------12h14----14---------|
A|-------------------------------14-12-10-12---------------------------------------|
E|-12-12-12-12-------------------------------10-11-12-12-12-12---------------------|
            
Submit corrections



        Tragedys A Comin lessons Hard to play? Try these video lessons and learn fast Tragedys A Comin lessons
        
↑ Back to top | Tablatures and chords for acoustic guitar and electric guitar, ukulele, drums are parodies/interpretations of the original songs. You may use it for private study, scholarship, research or language learning purposes only