» » »

Powderfinger - A Song Called Everything Tabs

Artists:  A B C D E F G H I J K L M N O P Q R S T U V W X Y Z # 

A Song Called Everything Tabs

(ver. 2) Click to play this song!
Powderfinger
 Rating:
4/5 (4 votes)


 A Song Called Everything lessons Tabs too difficult? Try these video lessons and learn fast
 
                Powderfinger
A Song Called Everything
Vulture Street

I couldn’t find the solo 4 this song on the web so I tabbed it myself. I’m not sure if 
100% accurate but its close enough. This is my 1st tab & I think it’s pretty good.

Standard tuning

H = hammer

The solo is played over the chorus riff: G D Em C

Solo:

|---------------------------------------------------------------------|
|-14---12--12--(12)------14---12--12--(12)-------12---10--10--(10)----|
|---------------------------------------------------------------------|
|---------------------------------------------------------------------|
|---------------------------------------------------------------------|
|---------------------------------------------------------------------|

|-----------|
|-8---10--10|
|-----------|
|-----------|
|-----------|
|-----------|


|---------------------------------------------------------------------|
|-14---12--12--(12)------14---12--12--(12)-------12---10--10--(10)----|
|---------------------------------------------------------------------|
|---------------------------------------------------------------------|
|---------------------------------------------------------------------|
|---------------------------------------------------------------------|

|-----------|
|-8---10--10|
|-----------|
|-----------|
|-----------|
|-----------|


|---------------------------------------------------------------------|
|-8--10--12----------8--10--12----------6--8--------------------------|
|----------9--9--------------9--9-------------7-----------------------|
|---------------------------------------------------------------------|
|---------------------------------------------------------------------|
|---------------------------------------------------------------------|

|---------------------------------------------------------------------|
|-3--5--7----7--9--11----11--13--15----15--17--19---------------------|
|---------------------------------------------------------------------|
|---------------------------------------------------------------------|
|---------------------------------------------------------------------|
|---------------------------------------------------------------------|

|---------------------------------------------------------------------|
|-17—19h---17—19h--17—19h--17—19h--17—19h--17—19h--17—19h--17—19h-----|
|---------------------------------------------------------------------|
|---------------------------------------------------------------------|
|---------------------------------------------------------------------|
|---------------------------------------------------------------------|

|-15--15-15-15-15--17--17-17-17-17---17--17--17--17--17--17--17--17---|
|---------------------------------------------------------------------|
|---------------------------------------------------------------------|
|---------------------------------------------------------------------|
|---------------------------------------------------------------------|
|---------------------------------------------------------------------|

|---------------------------------------------------------------------|
|----------5--7--9---9--11--13----6--8—10h--8--6-----5-4-3-2-1--------|
|-9-------------------------------------------------------------------|
|---------------------------------------------------------------------|
|---------------------------------------------------------------------|
|---------------------------------------------------------------------|

|---------------------------------------------------------------------|
|----------5--7--9---9--11--13----4--6—8h--6--4--4--6—8h--6-6--4------|
|---------------------------------------------------------------------|
|---------------------------------------------------------------------|
|---------------------------------------------------------------------|
|---------------------------------------------------------------------|

|---------------------------------------------------------------------|
|----------5--7--9---9--11--13----6--8—10h--8--6-----5-4-3-2-1--------|
|-9-------------------------------------------------------------------|
|---------------------------------------------------------------------|
|---------------------------------------------------------------------|
|---------------------------------------------------------------------|


|---------------------------------------------------------------------|
|-14---12--12--(12)------14---12--12--(12)-------12---10--10--(10)----|
|---------------------------------------------------------------------|
|---------------------------------------------------------------------|
|---------------------------------------------------------------------|
|---------------------------------------------------------------------|

|-----------|
|-8---10--10|
|-----------|      fades out there
|-----------|
|-----------|
|-----------|
            
Submit corrections



        A Song Called Everything lessons Hard to play? Try these video lessons and learn fast A Song Called Everything lessons
        
↑ Back to top | Tablatures and chords for acoustic guitar and electric guitar, ukulele, drums are parodies/interpretations of the original songs. You may use it for private study, scholarship, research or language learning purposes only