» » »

Portugal The Man - Devil Tabs

Artists:  A B C D E F G H I J K L M N O P Q R S T U V W X Y Z # 

Devil Tabs

(ver. 2) Click to play this song!
Portugal The Man
 Rating:
4/5 (6 votes)

 Devil lessons Tabs too difficult? Try these video lessons and learn fast
 
                . = palm mute

Intro-
e-----------------0---|
b-----------------8---|
G--9-9-9-9-9-9-9----9-|
D--9-9-9-9-9-9-9------|
A-(7)-----------------|
E---------------------|

And..

e-----------------------|
b------------------10p8-|
G--9-9-9-9-9-9-9--------|
D--9-9-9-9-9-9-9--------|
A-(7)-------------------|
E-----------------------|


Verse-
e------------------|
b------------------|
G--9-9-9-9-9-9-9---|
D--9-9-9-9-9-9-9---|
A-(7)--------------|
E------------------|

You can play the E note (7) all the way through, if you feel it sounds better.

Break-
e----------------|
b----------------|
G----------------|
D--------5-------|
A-7--5-7---7---5-|
E----------------|

^ I think I might have that part in the wrong key, but it's the right notes, if you 
my drift.

Other verse-
e-------------------|
b-------------------|
G-------------------|
D-------------------|
A---------------2h5-|
E-0-0-0-0-0-0-0-----|
  . . . . . . . . .

Heavy bit-
e--------------------------------|
b--------------------------------|
G--------------------------------|
D-2-22-2-22-2-22-2---------------|
A-2-22-2-22-2-22-2-------0-5-6-7-|
E-0-00-0-00-0-00-0--0-3-4--------|
    ..   ..   ..

End-
e----------------|
b-8--7--8--10----|
G-9--9--9--9--9--|
D-9--9--9--9--9--|
A-7--7--7--7--7--|
E----------------|

There's probably a mistake here or two, so feel free to leave a comment.
Portugal. the man own.
            
Submit corrections


        Devil lessons Hard to play? Try these video lessons and learn fast Devil lessons
        
↑ Back to top | Tablatures and chords for acoustic guitar and electric guitar, ukulele, drums are parodies/interpretations of the original songs. You may use it for private study, scholarship, research or language learning purposes only