Home » P » Porter Robinson »

Porter Robinson - Sad Machine Chords

Artists:  A B C D E F G H I J K L M N O P Q R S T U V W X Y Z # 

Sad Machine Chords

(ver. 1) Click to play this song!
Porter Robinson
Intro/Main Riff:

e|-------------18-15-18-15-----|
B|16--16--16----------------18-|
G|-----------------------------| X3
D|-----------------------------|
A|-----------------------------|
E|-----------------------------|


e|------------18--20--15--15------|
B|16--16--16------------------18--|
G|--------------------------------| X1
D|--------------------------------|
A|--------------------------------|
E|--------------------------------|

Is anyone there?
Oh-
Hi!

Intro: Ab Ab Eb Fm x2
       Ab Ab Cm Fm x2

Ab                          Eb          Fm
Who Survived? Somebody new. Anyone else but you
Ab
On a lonely night was a burning light
Cm                        Fm
A hundred leaders will be born a new

Chorus:

Ab
And though I know
Ab
Since you've awakened her again
Cm
She depends on you
Fm
She depends on you
Ab
She'll go alone
Ab
And never speak of this again
Cm
We depend on you
Fm
We depend on you
Ab
And though I know
Ab
Since you've awakened her again
Cm
She depends on you
Fm
She depends on you
Ab
She'll go alone
Ab
And never speak of this again
Cm
We depend on you
Fm
We depend on you

I depend on you

[Playing with riff]
Ab Ab Cm Fm x2

Bridge:

Dm                      Eb                     Ab                     Ab  
I don't know much about your life beyond these warm walls
Dm                      Eb                     Ab                     Ab
The fleeting sense of love within these god forsaken homes
Bb                      Eb                     Ab                     Ab
And I can hear it in his voice, in every call
Dm                      Eb                     Ab                     Ab
This girl who slept a hundred years had something after all

e|-------------18-15-18-15-----|
B|16--16--16----------------18-|
G|-----------------------------| X3
D|-----------------------------|
A|-----------------------------|
E|-----------------------------|


e|------------18--20--15--15------|
B|16--16--16------------------18--|
G|--------------------------------| X1
D|--------------------------------|
A|--------------------------------|
E|--------------------------------|

Chorus:

Ab
And though I know
Ab
Since you've awakened her again
Cm
She depends on you
Fm
She depends on you
Ab
I'll go alone
Ab
And never speak of this again
Cm
We depend on you
Fm
We depend on you
Ab
And though I know
Ab
Since you've awakened her again
Cm
She depends on you
Fm
She depends on you
Ab
She'll go alone
Ab
And never speak of this again
Cm
We depend on you
Fm
We depend on you

I depend on you

Ab Ab Cm Fm x2

Play!

Ab Ab Cm Fm x2

e|------------|
B|16--16--16--|
G|------------|
D|------------|
A|------------|
E|------------|
            
Submit corrections

↑ Back to top | Tablatures and chords for acoustic guitar and electric guitar, ukulele, drums are parodies/interpretations of the original songs. You may use it for private study, scholarship, research or language learning purposes only