» » »

Porno For Pyros - Pets Bass

Artists:  A B C D E F G H I J K L M N O P Q R S T U V W X Y Z # 

Pets Bass

(ver. 1) Click to play this song!
Porno For Pyros
 Rating:
4/5 (4 votes)

 Pets lessons Tabs too difficult? Try these video lessons and learn fast
 
                #

"pets" by porno for pyros from their self-titled debut album.
 
^intro, bass solo.
G|--------------------------------|--------------------------------|
D|--------------------------------|--------------------------------|
A|--------------------------------|--------------------------------|
E|--2-(2)-(2)-(2)-(2)-(2)-(2)-(2)-|--2-(2)-(2)-(2)-(2)-(2)-(2)-(2)-|
 
G|--------------------------------|------------------12h13p12-((((-|
D|--------------------------------|--------------------------------|
A|--------------------------------|--------------------------------|
E|--4-(4)-(4)-(4)-(4)-(4)-(4)-(4)-|--0-(0)-(0)-(0)-(0)-------------|
 
^guitar enters.
G|--------------------------------|--------------------------------|
D|--------------------------------|--------------------------------|
A|--------------------------------|--------------------------------|
E|--2-(2)-(2)-(2)-(2)-(2)-(2)-(2)-|--2-(2)-(2)-(2)-(2)-(2)-(2)-(2)-|
 
G|--------------------------------|------------------12h13p12-((((-|
D|--------------------------------|--------------------------------|
A|--------------------------------|--------------------------------|
E|--4-(4)-(4)-(4)-(4)-(4)-(4)-(4)-|--0-(0)-(0)-(0)-(0)-------------|
 
^guitar continues pattern, bass changes to:
 
G|---------------------------|
D|--4-44--------4-44---------|
A|-------1-2244------1-2234--|
E|---------------------------|
 
G|---------------------------|
D|--6-66---6--2-22---2-------|
A|-------6---------2---------|
E|---------------------------|
 
 
^end part, where the guitar is playing appregiated chords.
 
G|----------------3h4p3-(((((((---|-----------------3h4p3-(((((((--|
D|--------------------------------|--------------------------------|
A|--------------------------------|--------------------------------|
E|--2-(2)-(2)-(2)-----------------|--2-(2)-(2)-(2)-----------------|
 
G|----------------5h6p5-(((((((---|------------------12h13p12-((((-|
D|--------------------------------|--------------------------------|
A|--------------------------------|--------------------------------|
E|--4-(4)-(4)-(4)-----------------|--0-(0)-(0)-(0)-----------------|
 
G|----------------3h4p3-(((((((---|----------------3h4p3-(((((((---|
D|--------------------------------|--------------------------------|
A|--------------------------------|--------------------------------|
E|--2-(2)-(2)-(2)-----------------|--2-(2)-(2)-(2)-----------------|
 
G|----------------3h4p3-(((((((---|------------------12h13p12-((((-|
D|--------------------------------|--------------------------------|
A|--------------------------------|--------------------------------|
E|--4-(4)-(4)-(4)-----------------|--0-(0)-(0)-(0)-----------------|
 
G|--------------------------------|--------------------------------|
D|--------------------------------|--------------------------------|
A|--------------------------------|--------------------------------|
E|--2-(2)-(2)-(2)-----------------|--2-(2)-(2)-(2)-----------------|
 
G|--------------------------------|------------------12h13p12-((((-|
D|--------------------------------|--------------------------------|
A|--------------------------------|--------------------------------|
E|--4-(4)-(4)-(4)-----------------|--0-(0)-(0)-(0)-----------------|
 
fade out.

-d.
--
"negative d" and "-d."  is david a. piniella, who speaks for himself.
 
"Find myself singing the same songs every day/Ones that make me feel good
when things behind a smile ain't OK." [Shannon Hoon/Blind Melon]
 
"But I don't want to go among mad people," said Alice.
"Oh you can't help that," replied the Cat. "We're all mad here."
 
"There you go; stark raving sane." 
[Guildenstern]
            
Submit corrections


        Pets lessons Hard to play? Try these video lessons and learn fast Pets lessons
        
↑ Back to top | Tablatures and chords for acoustic guitar and electric guitar, ukulele, drums are parodies/interpretations of the original songs. You may use it for private study, scholarship, research or language learning purposes only