» » »

P.O.D. - Rock The Party Tabs

Artists:  A B C D E F G H I J K L M N O P Q R S T U V W X Y Z # 

Rock The Party Tabs

(ver. 2) Click to play this song!
P.O.D.
 Rating:
4/5 (4 votes)
                name=CHRIS CONKLIN 
band=POD
song=ROCK THE PARTY 2
inst_type=Guitar
body=TUNING IS D A D G B E

INTRO/verse
 -----------------------------------------------------------
 -----------------------------------------------------------
 -----------------------------------------------------------
 ------------------2-2-2---------------------------------------
 -0-0-0-0-0-0-0-0--0-0-0--3-3-3-3--------------------------------------------
 -0-0-0-0-0-0-0-0---------3-3-3-3------------------------------

chorus
 ---------------------------------------------------------------------------
 ----------------------------------------------------------------------------
 -7-7-7-7-7-7-7-7-7-7-7-7-7-7-7-7---7--7--7--7--7---10101010101010101010---------------------
 ---------------------------------s----------------s---------------------------
 -5-5-5-5-5-5-5-5-5-5-5-5-5-5-5-5---12-12-12-12-12---8-8-8-8-8-8-8-8-8-8-------------------------
 -----------------------------------------------------------------------------
            
Submit corrections

↑ Back to top | Tablatures and chords for acoustic guitar and electric guitar, ukulele, drums are parodies/interpretations of the original songs. You may use it for private study, scholarship, research or language learning purposes only