» » »

P.O.D. - Bullet The Blue Sky Tabs

Artists:  A B C D E F G H I J K L M N O P Q R S T U V W X Y Z # 

Bullet The Blue Sky Tabs

(ver. 2) Click to play this song!
P.O.D.
 Rating:
4/5 (4 votes)


 Bullet The Blue Sky lessons Tabs too difficult? Try these video lessons and learn fast
 
                I haven't seen any tabs for POD except Southtown and one for Set Your Eyes to Zion.  So
I'll see if I can do some more.  I'll do my best with this one..

Drop-D Tuning

INTRO (play 4 times)
e|---------------|---|
B|---------------|---|
G|----------10b\-|---|
D|-0-0-0-0--10b\-|-0-| 
A|-0-0-0-0---8b\-|-0-| <-- play this chord after the 4th time
D|-0-0-0-0-------|-0-|
   . . . .
      pm

play nothing during the first verse

CHORUS
e|--------------------------|
B|--------------------------|
G|-7--7--7/9-9-9/10-10\5--5-|
D|-7--7--7/9-9-9/10-10\5--5-| play 4 times
A|-5--5--5/7-7-7/-8--8\3--3-|
D|--------------------------|
     "bullet the blue sky!"

VERSE
e|------------------------------|
B|------------------------------|
G|------------------------------|
D|-0--0--0-0-0-0--0-0-0--10--10-| repeat a few times
A|-0--0--0-0-0-0--0-0-0--10--10-|
D|-0--0--0-0-0-0--0-0-0--10--10-|
   .  .  . . . .  . . .
    pm      pm      pm

play chorus 4 times

play intro a few times after that really weird heavy breathing

then let the 000--- sustain, then play intro a few times again. you'll hear it

SOLO
e|-10----------10---------10----------10----------------------------------|
B|-----10----------10---------10----------10------------------------------|
G|---------10---------10----------10---------10--10/11/12-12--10/11/12-12-| <--play
D|------------------------------------------------------------------------|     this
A|------------------------------------------------------------------------|      twice
D|------------------------------------------------------------------------|

  ------------------------------------------------------------------------|
  -------------------------------------------------13--//--12--//--10-----|
  -10h11-10h11-10h11-10h11-10h11-10h11-10h11-10h11---------------------10-|
  ------------------------------------------------------------------------|
  ------------------------------------------------------------------------|
  ------------------------------------------------------------------------|
that's pretty much the whole solo.. figure out what to repeat and stuff. he uses
a lot of really weird effects that i don't know how to do


play chorus a few times



Wow... what a freakin insane song.  Um.. enjoy?


Ryan Sanders
Fry's Hall of Tabs
            
Submit corrections



        Bullet The Blue Sky lessons Hard to play? Try these video lessons and learn fast Bullet The Blue Sky lessons
        
↑ Back to top | Tablatures and chords for acoustic guitar and electric guitar, ukulele, drums are parodies/interpretations of the original songs. You may use it for private study, scholarship, research or language learning purposes only