» » »

Pink Slip - Ultimate Tabs

Artists:  A B C D E F G H I J K L M N O P Q R S T U V W X Y Z # 

Ultimate Tabs

(ver. 2) Click to play this song!
Pink Slip
 Rating:
4/5 (4 votes)


 Ultimate lessons Tabs too difficult? Try these video lessons and learn fast
 
                ----------------------------------------------------------------------------
              Ultimate (solo) - Pink Slip (From "Freaky Friday")
----------------------------------------------------------------------------


Tuning: standard


e|-7/14~------14------14--14br~---12---11--12--11--12p11--------------------|
B|----------12------12-----------------------------------12--12~------------|
G|--------11------11--------------------------------------------------------|
D|--------------------------------------------------------------------------|
A|--------------------------------------------------------------------------|
E|--------------------------------------------------------------------------|

e|-19~---19br19--------------------19---------------------------------------|
B|---------------19~---16--19--19b------19br--19~---------------------------|
G|--------------------------------------------------------------------------|
D|--------------------------------------------------------------------------|
A|--------------------------------------------------------------------------|
E|--------------------------------------------------------------------------|

e|-19-19-19\18-18-18\16-16-16\14-14-14\12-12-12\11-11-11\9-9-9\7-7-7--------|
B|--------------------------------------------------------------------------|
G|--------------------------------------------------------------------------|
D|--------------------------------------------------------------------------|
A|--------------------------------------------------------------------------|
E|--------------------------------------------------------------------------|

e|--------------------------------------------------------------------------|
B|-12--14--12--14br--12--14b-----9-9-9-9-9-9-9-9-9-9-9-9-9-9-9-9-9-9-9-9----|
G|--------------------------------------------------------------------------|
D|--------------------------------------------------------------------------|
A|--------------------------------------------------------------------------|
E|--------------------------------------------------------------------------|

e|----------------------------------------21br21p19-21b~--------------------|
B|-11-11-11-11-12-12-12-12-14-14-14-14--------------------------------------|
G|--------------------------------------------------------------------------|
D|--------------------------------------------------------------------------|
A|--------------------------------------------------------------------------|
E|--------------------------------------------------------------------------|






| /  slide up
| \  slide down
| h  hammer-on
| p  pull-off
| ~  vibrato
| +  harmonic
| x  Mute note
| b  whole step bend
| hb half step bend
| br bend and release

===============================================================================
            
Submit corrections



        Ultimate lessons Hard to play? Try these video lessons and learn fast Ultimate lessons
        
↑ Back to top | Tablatures and chords for acoustic guitar and electric guitar, ukulele, drums are parodies/interpretations of the original songs. You may use it for private study, scholarship, research or language learning purposes only