» » »

Pillows - Ride On Shooting Star Tabs

Artists:  A B C D E F G H I J K L M N O P Q R S T U V W X Y Z # 

Ride On Shooting Star Tabs

(ver. 3) Click to play this song!
Pillows
 Rating:
4/5 (4 votes)

 Ride On Shooting Star lessons Tabs too difficult? Try these video lessons and learn fast
 
                (Intro)
here is the way to play intro to the FLCL theme.

e|--------------------------------------------------------------|
B|--------------------------------------------------------------|
G|------------------6-6-6-6--6-6-6-6----------------------------|
D|12-12-12\-0-3h4---7-7-7-7--7-7-7-7----------------------------|
A|------------------7-7-7-7--7-7-7-7----------------------------|
E|------------------5-5-5-5--5-5-5-5----------------------------|

Play that a bunch of times then play this for the verse. Play each
eight times. except the D not at the end which you play six times.

e|--------------------------------------------------------------|
B|--------------------------------------------------------------|
G|--------------------------------------------------------------|
D|------4--------------7\---------------------------------------|
A|5--4--2--2--5--4--2--5\---------------------------------------|
E|3--2-----0--3--2--0-------------------------------------------|
            
Submit corrections


        Ride On Shooting Star lessons Hard to play? Try these video lessons and learn fast Ride On Shooting Star lessons
        
↑ Back to top | Tablatures and chords for acoustic guitar and electric guitar, ukulele, drums are parodies/interpretations of the original songs. You may use it for private study, scholarship, research or language learning purposes only