Home » P » Peter And The Test-Tube Babies »

Peter And The Test-Tube Babies - The Jinx Tabs

Artists:  A B C D E F G H I J K L M N O P Q R S T U V W X Y Z # 

The Jinx Tabs

(ver. 1) Click to play this song!
Peter And The Test-Tube Babies
			  The Jinx, Peter and the Test Tube Babies

Tuning: Standard

INTRO

e|----3---2---0----2---3-2h0---3---2---2---0--------------------------------|
B|--0---0---0---0----0-------0---0---3---2---0------------------------------|
G|--------------------------------------------------------------------------|
D|--------------------------------------------------------------------------|
A|--------------------------------------------------------------------------|
E|--------------------------------------------------------------------------|

VERSE

e|--------------------------------------------------------------------------|
B|--------------------------------------------------------------------------|
G|--------------7-----------------------------------------------------------|
D|----9----5----7---7----9--------------------------------------------------|
A|----9----5----5---7----9--------------------------------------------------|
E|----7----3--------5----7--------------------------------------------------|

   PM . . . . . 

Chorus

e|--------------|-----------------------------------------------------------|
B|--------------|-----------------------------------------------------------|
G|--------------|----Add this on last one instead---------------------------|
D|----10/9---7--|--------12-------------------------------------------------|
A|----10/9---7--|--------12-------------------------------------------------|
E|-----8/7---5--|--------10-------------------------------------------------|



| /  slide up
| \  slide down
| h  hammer-on
| p  pull-off
| ~  vibrato
| +  harmonic
| x  Mute note
            
Submit corrections

↑ Back to top | Tablatures and chords for acoustic guitar and electric guitar, ukulele, drums are parodies/interpretations of the original songs. You may use it for private study, scholarship, research or language learning purposes only