Home » P » Peter And The Test-Tube Babies »

Peter And The Test-Tube Babies - Banned From The Pubs Tabs

Artists:  A B C D E F G H I J K L M N O P Q R S T U V W X Y Z # 

Banned From The Pubs Tabs

(ver. 1) Click to play this song!
Peter And The Test-Tube Babies


          intro:                       verse:                           
E------------|-----------------||-----------------------------------------
B------------|-----------------||-----------------------------------------
G------------|-----7--3--5---||--------------------------7--3--5--------
D---5-----5-|----7--3--5----||--5--5--5--5--5--5--5--5--7--3--5--------
A---5-----5-|-----5--1--3---||--5--5--5--5--5--5--5--5--5--1--3--------
E---3-----3-|-----------------||--3--3--3--3--3--3--3--3-----------------
                                                                        

                                             chorus:                    
E----||--------------|--------------|--------------------------|--------
B----||--------------|--------------|--------------------------|--------
G---*||--7--3--5-----|--7--3--5-----|--------------7--7--7--7--|--7-----
D---*||--7--3--5--5--|--7--3--5--5--|--5--5--5--5--7--7--7--7--|--7-----
A----||--5--1--3--5--|--5--1--3--5--|--5--5--5--5--5--5--5--5--|--5-----
E----||-----------3--|-----------3--|--3--3--3--3--------------|--------
                                                                        

                      .                                                 
E------------|----------------------------------------------------------
B------------|----------------------------------------------------------
G---3--5-----|--------------7--7--7--7----------------------------------
D---3--5--5--|--5--5--5--5--7--7--7--7----------------------------------
A---1--3--5--|--5--5--5--5--5--5--5--5----------------------------------
E---------3--|--3--3--3--3----------------------------------------------
                                                                        
This is by peter and the test-tube babies I figured it out off of the "Oi Greatest hits" album.









==      Created with TABESTRY Tab Creation Software for Windows       ==
            
Submit corrections

↑ Back to top | Tablatures and chords for acoustic guitar and electric guitar, ukulele, drums are parodies/interpretations of the original songs. You may use it for private study, scholarship, research or language learning purposes only