» » »

Pepper - Stone Love Tabs

Artists:  A B C D E F G H I J K L M N O P Q R S T U V W X Y Z # 

Stone Love Tabs

(ver. 3) Click to play this song!
Pepper
 Rating:
4/5 (4 votes)

 Stone Love lessons Tabs too difficult? Try these video lessons and learn fast
 
                -------------------------------------------------------------------------------
                                             Stone Love - Pepper
-------------------------------------------------------------------------------



Tuning: Standard

Intro (0:00)
e|--------------------------------------------------|
B|--------------------------------------------------|
G|--------------------------------------------------|
D|--------------------------------------------------|
A|----4---4-6-7\2---------2---2---------------------|
E|------4---------0-2-4-4---4-----------------------|

Verse (0:12)
e|----4----4----|----4-2----------------------------|
B|----5----4----|--------5-4------------------------|
G|----6----4----|-----------------------------------|
D|----6----6----|-----------------------------------|
A|----4----6----|-----------------------------------|
E|---------4----|-----------------------------------|

Solo (2:10)
e|---9-9-9-7----------------------------------------|
B|-----------9-7---7-9-10-9~------------------------|
G|---------------9-----------9\----8h9p8\6-6/8\6/9--|
D|--------------------------------------------------|
A|--------------------------------------------------|
E|--------------------------------------------------|

e|------------11h14p11-12-11------------------------|
B|-------9h10---------------------------------------|
G|---8h9-----------------------12-11----9-9h11p9\8~-|
D|-----------------------------------11-------------|
A|--------------------------------------------------|
E|--------------------------------------------------|

e|-11-11-11-11\9-9-9-9\7-7\4-4-------------------------|
B|-----------------------------7-5/7-9/10-9/12-10-9-7\-|
G|-8--8--8--8-\6-6-6-6\4-4\1-1-------------------------|
D|-----------------------------4-2/4-6/7--6/9--7--6-4\-|
A|-----------------------------------------------------|
E|-----------------------------------------------------|

Fill (2:38)
e|----2/4-4---2/4-4---------------------------------|
B|----2/4-4---2/4-4---------------------------------|
G|----2/4-4---2/4-4---------------------------------|
D|--------------------------------------------------| x2
A|--------------------------------------------------|
E|--------------------------------------------------|

Outro (3:17)
e|-------------------------------------4---7p4-7-4--|
B|--------5p4----------5p4-------4-5-7--------------|
G|---6~-------6p4-6~-------6p4-6--------------------|
D|--------------------------------------------------|
A|--------------------------------------------------|
E|--------------------------------------------------|

e|--------------4----4----4-------------------------|
B|---7-5-7---7b---7b---7b---5-7b-5------------------|
G|--------------------------------------------------|
D|--------------------------------------------------|
A|--------------------------------------------------|
E|--------------------------------------------------|

e|-------------------------------------4---7p4--9---|
B|--------5p4----------5p4-------4-5-7----------12b-|
G|---6~-------6p4-6~-------6p4-6--------------------|
D|--------------------------------------------------|
A|--------------------------------------------------|
E|--------------------------------------------------|

Stone love with the number one sound 
A four four in the background, a platinum selector of the time  
Don't watch my size in this hall 
While my backs against the wall 
Take a ride, competition take a ride 
Pull it operator, try the other side 
Thought it was over, so far from done 
As they dance into the sun 

Some bring up new style holding trophy cups 
Rory select while my speakers erupt 
The sound's sweeter with an echo chamber 
Don't you know that they are the danger 
Three bottles of Cristal and it's agreed 
The best could only come from the Don Wesley 
Close my eyes when I take a ride 

Fold up the bag in a yard style 
Don't worry 'bout that you see it's all natural 
Police chasing this bandilero 
Running down the road with my thick payroll 
One stop was my music shop 
Where I heard this guitar screamin'

Some bring up new style holding trophy cups 
Rory select while my speakers erupt 
The sound's sweeter with an echo chamber 
Don't you know that they are the danger 
Three bottles of Cristal and it's agreed 
The best could only come from the Don Wesley 
Close my eyes when I take a ride 

Take a ride, everybody take a ride...

| PM Palm Mule
| /  Slide up
| \  Slide down
| b  Bend
| h  Hammer-on
| p  Pull-off
| ~  Vibrato
| +  Harmonic
| x  Mute note
===============================================================================
            
Submit corrections


        Stone Love lessons Hard to play? Try these video lessons and learn fast Stone Love lessons
        
↑ Back to top | Tablatures and chords for acoustic guitar and electric guitar, ukulele, drums are parodies/interpretations of the original songs. You may use it for private study, scholarship, research or language learning purposes only