» » »

Pearl Jam - Yellow Ledbetter Bass

Artists:  A B C D E F G H I J K L M N O P Q R S T U V W X Y Z # 

Yellow Ledbetter Bass

(ver. 1) Click to play this song!
Pearl Jam
 Rating:
4/5 (4 votes)
    Yellow Ledbetter lessons Tabs too difficult? Try these video lessons and learn fast
                Song Title: Yellow Ledbetter
----------------------------------------------

guitar solo/intro:
      8 bars


verse:         

       E            B           A           E
     ||------------|-----------|-----------|-----------||
     ||------------|-----------|---7-------|-----14--\-||
     ||7--------7\-|2-------2/-|0----------|----------\||
     ||------------|-----------|-----------|0----------||

         this riff is played about 13x (wow!)
      


bridge:

                E     B       A            E     B       A
               ||-------------|-----------/|-------------|------------------|
               ||-------------|------7---/-|-------------|------------------|
               ||------2---2/-|------------|------2---2/-|------------------|
               ||0-0-0--------|5-5-5-------|0-0-0--------|5-5-5-4-4-4-4-2-2/|
"..i don't wanna stay.....alone.."

                 E     B       A            E     B       A
               ||-------------|-----------/|-------------|-----------------||
               ||-------------|------7---/-|-------------|------7----------||   
               ||------2---2/-|---------/--|------2---2/-|-----------------||
               ||0-0-0--------|5-5-5-------|0-0-0--------|5-5-5------------||


interlude:

      B/D#  E      B          B/D#  E       A    *harmonic                 
     ||-----------|-----------|-------------|--------------|
     ||-----------|-----------|-------------|------*(7)----|
     ||6----7----\|2--------2/|6----7-------|0-------------|
     ||-----------|-----------|-------------|--------------|

      B/D#  E      B          B/D#  E        A            E
     ||-----------|-----------|-------------|------------|------------||
     ||-----------|-----------|-------------|------------|------------||
     ||6----7----\|2--------2/|6----7-------|0-----------|------------||
     ||-----------|-----------|-------------|------------|0-----------||


                           and keep on jammin'>
            
Submit corrections

↑ Back to top | Tablatures and chords for acoustic guitar and electric guitar, ukulele, drums are parodies/interpretations of the original songs. You may use it for private study, scholarship, research or language learning purposes only