» » »

Pearl Jam - State Of Love And Trust Bass

Artists:  A B C D E F G H I J K L M N O P Q R S T U V W X Y Z # 

State Of Love And Trust Bass

(ver. 2) Click to play this song!
Pearl Jam
 Rating:
4/5 (4 votes)


 State Of Love And Trust lessons Tabs too difficult? Try these video lessons and learn fast
 
                -------------------------------------------------------------------------------
			     STATE OF LOVE AND TRUST - Pearl Jam
-------------------------------------------------------------------------------


Tuning:Standard

intro: guitar starts and bass comes in with this
G|------------------|-----------------------------|
D|------------------|-----------------------------|x6
A|------------------|-/8--8-8-8-8-8---------------|
E|-5--5-5-5-5-5-5-5-|---------------5--5-5--5-5-5-|

verse:
G|----------------------------|
D|----------------------------|x8
A|----------------------------|
E|-1--1-1-1-1-3-5--5-5--5-5-5-|

chorus:
G|------------------------------------------------------------|
D|------------------------------------------------------------|
A|-/8--8-8-8-8-8---------------2-3--3-3-3-3-3-----------------|
E|---------------5--5-5--5-5-5----------------3--3-3--3-3-3-3-|

G|-----------------------------------------------------------|
D|-----------------------------------------------------------|
A|-------------------------------------------5--5-5--5-5-5-5-|
E|-5--5-5-5-5-5-7--7-7--7-7-7-7-8--8-8-8-8-8-----------------|

verse:
G|----------------------------|
D|----------------------------|x8
A|----------------------------|
E|-1--1-1-1-1-3-5--5-5--5-5-5-|

chorus: play twice
G|------------------------------------------------------------|
D|------------------------------------------------------------|
A|-/8--8-8-8-8-8---------------2-3--3-3-3-3-3-----------------|
E|---------------5--5-5--5-5-5----------------3--3-3--3-3-3-3-|

G|-----------------------------------------------------------|
D|-----------------------------------------------------------|
A|-------------------------------------------5--5-5--5-5-5-5-|
E|-5--5-5-5-5-5-7--7-7--7-7-7-7-8--8-8-8-8-8-----------------|

pre-solo:
G|-------------------------------------|
D|-------------------------------------|x4
A|-------------------------------------|
E|-1-1--1-3-5--------1-1--1-3-5--------|

solo:
G|-----------------------------|
D|-----------------------------|x8
A|-/8--8-8-8-8-8---------------|
E|---------------5--5-5--5-5-5-|

chorus: play four times
G|------------------------------------------------------------|
D|------------------------------------------------------------|
A|-/8--8-8-8-8-8---------------2-3--3-3-3-3-3-----------------|
E|---------------5--5-5--5-5-5----------------3--3-3--3-3-3-3-|

G|-----------------------------------------------------------|
D|-----------------------------------------------------------|
A|-------------------------------------------5--5-5--5-5-5-5-|
E|-5--5-5-5-5-5-7--7-7--7-7-7-7-8--8-8-8-8-8-----------------|

outro:
G|-----------------------------|
D|-----------------------------|x11
A|-/8--8-8-8-8-8---------------|
E|---------------5--5-5--5-5-5-|

G|-----------------------------|
D|-----------------------------|
A|-/8--8-8-8-8-8---------------|
E|---------------5-------------|

| /  slide up
| \  slide down
| h  hammer-on
| p  pull-off
| ~  vibrato
| +  harmonic
| x  Mute note
===============================================================================
            
Submit corrections



        State Of Love And Trust lessons Hard to play? Try these video lessons and learn fast State Of Love And Trust lessons
        
↑ Back to top | Tablatures and chords for acoustic guitar and electric guitar, ukulele, drums are parodies/interpretations of the original songs. You may use it for private study, scholarship, research or language learning purposes only